Oops, an error
Loading. Please wait.

Carrion Tab

version 5
version 5

Interactive

1,788 views 1 this week
1 commentread comment
1 2 3 4 5
please rate
add to favorites
launch autoscroll
font size
0
reset
how to read this tab
guitar tuner
Autoscroll
slow
fast
+/-
esc
set tempo
stop
Help us to improve Ultimate-Guitar.com Take our survey!
×
Author
Song: Carrion
Band: Parkway Drive
Album: Horizons
Tuning: Drop B

~ = Vibrato
* = Palm Mute
h = Hammer On
p = Pull Off
\ = Slide Down
/ = Slide Up
() = Grace Notes
{} = Artificial(pinch) Harmonic


|---------------------------------------------|
|---------------------------------------------|
|-----5----------------9--------9---9---7-----|
|-3---(3)---0---2---7---7---5--(5)--5---5-----|
|-3---(3)---0---(0)--7-------5----------------|
|-3--------0-------7-------5------------------|
[_____________________Let ring_________]

|-------------------------------------------|
|-------------------------------------------|
|-----5----------------9---------9---9------|
|-3---(3)---0---2---7---7---5--(5)---5------|
|-3---(3)---0---(0)--7-------5--------------|
|-3--------0-------7-------5----------------|
[_____________________Let ring_________]

[CHORUS]
|---------------------------------------------------|
|---------------------------------------------------|
|---5-4-5-4p0-----4---5---4---9-7-9-7---5---9---7---|      x2
|-3-----------0-------------7---------5-------------|
|-3-----------0-------------7---------5-------------|
|-3-----------0-0---0---0---7---------5---0---0-----|
                                     *       *        *                           *        *

[VERSE EXTRA]
|--------------------|
|--------------------|
|--------------------|
|0---0---0-----------|   Guitar 1 plays for 1st bar of Verse
|0---0---0-----------|
|0---0---0---12\(5---|
  *       *        *

[VERSE pt.1]
|--------------------------------------|
|--------------------------------------|
|--------------------------------------|       Guitar 1 x 3
|------------------------------2h3p2---|       Guitar 2 x 4
|8-----7---8---5-----8---5---3-------3-|
|--0-0---0---0---0-0---0---0-----------|
       *  *        *       *       *   *       *        *
[VERSE pt.2]
|--------------------------------------|
|--------------------------------------|
|--------------------------------------|       Guitar 1 x 3
|7-----7---7---4-----------------------|       Guitar 2 x 3
|8-----8---8-\-5-------7-7-7-7---------|
|--0-0---0-------0-000-8-8-8-8---------|
       *  *        *       *       *    ***
[VERSE pt.2 alt ending]
|-----------------------------------------------------------|
|-----------------------------------------------------------|
|--------------------------------------|       Guitar 1 x 1-|
|7-----7---7---4-----------------------|       Guitar 2 x 1-|
|8-----8---8-\-5-------{3}~~~~~-----------------------------|
|--0-0---0-------0-000--------------------------------------|
       *  *        *       *       *    ***
[VERSE pt.1]
|--------------------------------------|
|--------------------------------------|
|--------------------------------------|       Guitar 1 x 4
|------------------------------2h3p2---|       Guitar 2 x 4
|8-----7---8---5-----8---5---3-------3-|
|--0-0---0---0---0-0---0---0-----------|
       *  *        *       *       *   *       *        *
[CHORUS]
|---------------------------------------------------|
|---------------------------------------------------|
|---5-4-5-4p0-----4---5---4---9-7-9-7---5---9---7---|      x2
|-3-----------0-------------7---------5-------------|
|-3-----------0-------------7---------5-------------|
|-3-----------0-0---0---0---7---------5---0---0-----|
                                     *       *        *                             *       *
[VERSE pt.2]
|--------------------------------------|
|--------------------------------------|
|--------------------------------------|       Guitar 1 x 4
|7-----7---7---4-----------------------|       Guitar 2 x 4
|8-----8---8-\-5-------7-7-7-7---------|
|--0-0---0-------0-000-8-8-8-8---------|
       *  *        *       *       *    ***

[SMALL BRIDGE]
|-----------------------------------------------|
|--10-10-10-10-10-10-10-10-10-10-10-10-10-10-10-|
|--12-12-12-12-10-10-10-10--9--9--9--9--7--7--7-|    x2
|-----------------------------------------------|
|-----------------------------------------------|
|-----------------------------------------------|

[SOLO]
|--------------------------------------------------------------------|
|--------------------------------------------------------------------|
|--------------------------------------------------------------------|
|3--2-3-2-0----------------------------2--2--------------------------|
|------------3-(3)/5-(5)/7-5-7/10-8-7-5-3--5--5-2-3/7-5-7/10-8-7-5---|
|--------------------------------------------------------------------|

[CHORUS]
|--------------------------------------------------|
|--------------------------------------------------|
|---5-4-5-4p0-----4---5---4---9-7-9-7---5---9------|
|-3-----------0-------------7---------5------------|  Stop 1 note short before Bridge
|-3-----------0-------------7---------5------------|
|-3-----------0-0---0---0---7---------5---0---0----|
                                     *       *        *                                        *
[LONG BRIDGE]
|----------------------------------------------------------------------|
|----------------------------------------------------------------------|
|----------------------------------------------------------------------|
|0h5h8-7-----0h3h7-5-----0h5h8/10-----8p7p5\3--------------------------|     x2
|---------------------------------------------7-7-.8.-5-5-5-7-3--------|
|--------0-0---------0-0----------0-0---------8-8-10-7-7-7-8-5---------|
                    *                          *                            *
[CHORUS]
|---------------------------------------------------|
|---------------------------------------------------|
|---5-4-5-4p0-----4---5---4---9-7-9-7---5---9---7---|      x2
|-3-----------0-------------7---------5-------------|
|-3-----------0-------------7---------5-------------|
|-3-----------0-0---0---0---7---------5---0---0-----|
                                     *       *        *                                        *
[OUTRO]   REPEAT ALL x2
|-------------------------------------------------------------------------------|
|-------------------------------------------------------------------------------|
|-------------------------------------------------------------------------------|
|-3-777777779999-5-9999999910.10.10.10.-7-10.10.10.10.10.10.10.10.12.12.12.12---|
|-3--------------5--------------------7-----------------------------------------|
|-3--------------5--------------------7-----------------------------------------|

|--------------------------------------------------------------|
|--------------------------------------------------------------|
|--------------------------------------------------------------|
|-5-9999999910.10.10.10-3-777777779999-5-9999999910.10.10.10---|
|-5-------------------.3--------------5------------------------|
|-5-------------------.3--------------5------------------------|

|---------------------------------------------------------|
|---------------------------------------------------------|
|---------------------------------------------------------|
|-0-555555557777-3-333333335555---------------------------|
|-0--------------3----------------------------------------|
|-0--------------3----------------------------------------|
Suggest correction
Give kudos to tab author, rate the tab!
1 2 3 4 5
comments
print report bad tab
1 comment total.
0 reply
GrinningKillr 58 wrote on May 11 2010, 03:32 am

Woah this tab got really ****ed up

guest
You may want to rate the tab now too:
select rating
Wanna post a correction for this tab? Suggest correction