Oops, an error
Loading. Please wait.

Dark Days Tab

version 1
version 1

Whole song

53,363 views 27 this week
3 commentsread comments
1 2 3 4 5
x 7
add to favorites
launch autoscroll
font size
0
reset
how to read this tab
guitar tuner
Autoscroll
slow
fast
+/-
esc
set tempo
stop
Help us to improve Ultimate-Guitar.com Take our survey!
×
Author
Difficulty
Tuning
novice
A# F A# D# G C
Artist: Parkway Drive   
Song: Dark Days Artist

C |----------------------------------------------------|
G |----------------------------------------------------|
Eb|----------------------------------------------------|
Ab|----7-8-----8-10-----10-12--12----14----------------|   x6
F |--0-------0--------0----------12----15--------------|
Ab|--------0--------0----------------------------------|
    
C |----------------------------------------------------|
G |----------------------------------------------------|
Eb|----------------------------14b----12b--------------|
Ab|----7-8-----8-10-----10-12------15-----14-----------|   x4
F |--0-------0--------0--------------------------------|
Ab|--------0--------0----------------------------------|
    
C |----------------|----------------|------------------|
G |----------------|----------------|------------------|
Eb|----------------|----------------|------------------|
Ab|----------------|----------------|------------------|
F |----------------|----------------|--------12-12-12--|
Ab|----------------|----------------|------------------|
    Let ring for Four measures. GTR 2 Pick Scrape

C |--------------------------|-------------------------|
G |--------------------------|-------------------------|
Eb|--------------------------|-------------------------|
Ab|--------7---------8-------|--------------5-7-5------|  x4
F |--5-8-8---5-5-8-8---5-5-8-|--------5-7-8-------7-5--|
Ab|--------------------------|0-0-0-0-0-0--------------|
    
C |----------------------------------------------------|
G |----------------------------------------------------|
Eb|----------------------------------------------------|
Ab|--------7---------8---------------------------------| x4
F |--5-8-8---5-5-8-8---5-5--7~-------------------------|
Ab|----------------------------------------------------|
    
C |--------------------------------|
G |--------------------------------|
Eb|--------------------------------|
Ab|---------------------------7~/--|   Chugging! x2
F |-0-0-0-0-0-0-0-0-0-0-0-0---5~/--|
Ab|-0-0-0-0-0-0-0-0-0-0-0-0--------|
    
C |---------------------------------------|
G |---------------------------------------|
Eb|---------------------------------------|
Ab|---------------------------------------| After the second time play this
F |-0-0-5-0-0-0-7-0-8~~~5--7--3-----------| Something like this.
Ab|-0-0-5-0-0-0-7-0-8~~~5--7--3-----------|
    
C |----------------|----------------|------------------|
G |----------------|----------------|------------------|
Eb|----------------|----------------|------------------|
Ab|----------------|----------------|------------------|
F |----------------|----------------|--------12-12-12--|
Ab|----------------|----------------|------------------|
    Let ring for Four measures. GTR 2 Pick Scrape

C |--------------------------|-------------------------|
G |--------------------------|-------------------------|
Eb|--------------------------|-------------------------|
Ab|--------7---------8-------|--------------5-7-5------|  x4
F |-5-5-8-8---5-5-8-8---5-5-8-|-------5-7-8-------7-5--|
Ab|----------------------|0-0-0-0-0-0------------------|
    
C |----------------------------------------------------|
G |----------------------------------------------------|
Eb|----------------------------------------------------|
Ab|--------7---------8---------------------------------| x4
F |-5-5-8-8---5-5-8-8---5-5--7~------------------------|
Ab|----------------------------------------------------|

C |--------------------------------|
G |--------------------------------|
Eb|--------------------------------|
Ab|---------------------------7~/--|   Chugging! x2
F |-0-0-0-0-0-0-0-0-0-0-0-0---5~/--|
Ab|-0-0-0-0-0-0-0-0-0-0-0-0--------|
    
C |---------------------------------------|
G |---------------------------------------|
Eb|---------------------------------------|
Ab|---------------------------------------| After the second time play this
F |-0-0-5-0-0-0-7-0-8~~~5--7--3-----------| Something like this.
Ab|-0-0-5-0-0-0-7-0-8~~~5--7--3-----------|

C |--------------------------------------|
G |--------------------------------------|
Eb|--------------------------------------|
Ab|--------------------------------------| 1's not 11's
F |--0-0-0-0-0-0-0-0-0-0-----------------|
Ab|--0-0-0-0-0-0-0-0-0-0-1-1-1-1-1-1-1-1-|
    
   Guitar 2
C |-----------------------|
G |-----------------------|
Eb|-----------------------|
Ab|----7/8~-----8/7~------|
F |--0--------0-----------|
Ab|---------0-------------|
    
C |----------------------------------------------------|
G |----------------------------------------------------|
Eb|----------------------------------------------------|
Ab|----7-8-----8-10-----10-12--12----14----------------|   x2
F |--0-------0--------0----------12----15--------------|
Ab|--------0--------0----------------------------------|
            
C |----------------------------------------|
G |----------------------------------------|
Eb|-------------------------------------5*-|
Ab|----------------------------------------|
F |--0---0-0---0-0------0-0---0-0---0-0----|
Ab|--0---0-0---0-0------0-0---0-0---0-0----|
        
C |------------------------------------------|
G |------------------------------------------|
Eb|-----------------------------14B---12B----|
Ab|--------------------------------15----14--|
F |--0-0-0-0-0-0-0-0-0-0-0-0-0-0-------------|
Ab|--0-0-0-0-0-0-0-0-0-0-0-0-0-0-------------|
        
C |---------------------------------------------------|
G |---------------------------------------------------|
Eb|---------------------------------------------------|
Ab|---------------------------------------------------|
F |--0-0-0-0-0-0-0-0-0-0-0-0-0-0----------------------|
Ab|--0-0-0-0-0-0-0-0-0-0-0-0-0-0----8~-10~------------|

C |------------------------------------------------------|
G |------------------------------------------------------|
Eb|------------------------------------------------------|
Ab|------------------------------------------------------| x3
F |--0-0-0-0-0-0-0-0-0-0-0-0-0-0-0-0-0-0-0-0-------------|
Ab|--0-0-0-0-0-0-0-0-0-0-0-0-0-0-0-0-0-0-0-0-------------|
      
C |---------------------|
G |---------------------|
Eb|---------------------|
Ab|---------------------| 
F |-0~--0-0~---0-0------|
Ab|-0~--0-0~---0-0------|
 

************************************

| b  Bend
| ~  Vibrato
| /  Slide up 

************************************
Suggest correction
comments
print report bad tab
3 comments total.
+1 reply
bflores210 10 Dec 30, 2012 10:34 PM

this is not 100% correct but close

0 reply
Johnny273 10 Aug 14, 2013 01:49 AM

i wrote out the solo but i lost my page so i can't be stuffed writing it again.

0 reply
Johnny273 10 Aug 14, 2013 01:49 AM

oh, i forgot. Good tab by the way.

guest
You may want to rate the tab now too:
select rating
Wanna post a correction for this tab? Suggest correction