Oops, an error
Loading. Please wait.

Dead Mans Chest Tab

version 1
version 1

Whole song

Interactive

17,016 views 3 this week
12 commentsread comments
1 2 3 4 5
x 7
add to favorites
launch autoscroll
font size
0
reset
how to read this tab
guitar tuner
Autoscroll
slow
fast
+/-
esc
set tempo
stop
Help us to improve Ultimate-Guitar.com Take our survey!
×
Author
Difficulty
intermediate
Dead Mans Chest - Parkway Drive           Written By: Drummer32123

Tuning: Drop A# (A#,F,A#,D#,G,C)

   0:07
C |---------------|
G |---------------|
D#|---------------|
A#|-0-1-3-1-0-3---|
F |-0-1-3-1-0-3---|
A#|-0-1-3-1-0-3---|


   0:10  x2
C |--------------------------------------------------------|
G |--------------------------------------------------------|
D#|--------------------------------------------------------|
A#|-0-0-0-0-------0-0-0-0-------0-0-0-0-------0-1-3-1-0-3--|
F |-0-0-0-0-------0-0-0-0-------0-0-0-0-------0-1-3-1-0-3--|
A#|-0-0-0-0-0-0-0-0-0-0-0-0-0-0-0-0-0-0-0-0-0-0-1-3-1-0-3--|
    * * * *       * * * *       * * * *

   0:26  
C |----------|
G |----------|
D#|----------|
A#|-0-0-0-0--|
F |-0-0-0-0--|
A#|-0-0-0-0--|
    * * * *

   0:28  x2
C |-------------------------------------------------------|
G |-------------------------------------------------------|
D#|-------------------------------------------------------|
A#|-0-0-0-0-------0-0-0--------0-0-0-0-------0-1-3-1-0-3--|
F |-0-0-0-0-------0-0-0--------0-0-0-0-------0-1-3-1-0-3--|
A#|-0-0-0-0-0-0-0-0-0-0--1-1-1-0-0-0-0-0-0-0-0-1-3-1-0-3--|
    * * * *       * * *        * * * *
   0:43
C |------|
G |------|
D#|------|
A#|-0~---|
F |-0~---|
A#|-0~---|

   0:46
C |------|
G |------|
D#|------|
A#|-0~---|
F |-0~---|
A#|-0~---|

   0:47
C |----------------------------------------------|
G |----------------------------------------------|
D#|----------------------------------------------|
A#|----------5---------5---------5---------5-----|
F |--------8---7-8---8---7-8---8---7-8---8---7-8-|
A#|-//// 0---------0---------5---------8---------|

   0:58
C |----------------------------------------------|
G |----------------------------------------------|
D#|----------------------------------------------|
A#|-----5---------5---------5--------------------|
F |---8---7-8---8---7-8---8---7-8---8------------|
A#|-0---------0---------5---------8--------------|

   1:06  x3
C |---------------------------------------|
G |---------------------------------------|
D#|---------------------------------------|
A#|-8-5-----------0-0-0--0-0-0--0-0-0--0--|
F |-----8-7-8-7-5-0-0-0--0-0-0--0-0-0--0--|
A#|---------------0-0-0--0-0-0--0-0-0--0--|
                  * * *  * * *  * * *  *
   1:16
C |---------------------------------------|
G |---------------------------------------|
D#|---------------------------------------|
A#|-8-5-------------5---------------------|
F |-----8-7-8-7-5-8-----------------------|
A#|---------------------------------------|

   1:20  x3
C |---------------------------------------|
G |---------------------------------------|
D#|---------------------------------------|
A#|-8-5-----------0-0-0--0-0-0------------|
F |-----8-7-8-7-5-0-0-0--0-0-0------------|
A#|---------------0-0-0--0-0-0------------|
                  * * *  * * *
   1:30  
C |-----------------|
G |-----------------|
D#|-----------------|
A#|-8-5-------------|
F |-----8-7-8-7-5---|
A#|-----------------|
                  
   1:32
C |--------------|
G |--------------|
D#|--------------|
A#|--------------|
F |----8~~5~~~---|
A#|-8~~----------|
                  
   1:41
C |----------------|
G |----------------|
D#|----------------|
A#|-0-0-0-0--------|
F |-0-0-0-0--------|
A#|-0-0-0-0-0-0-0--|
    * * * *
   1:45  
C |--------------------------------------------------------|
G |--------------------------------------------------------|
D#|--------------------------------------------------------|
A#|-0-0-0-0-------0-0-0-0-------0-0-0-0-------0-1-3-1-0-3--|
F |-0-0-0-0-------0-0-0-0-------0-0-0-0-------0-1-3-1-0-3--|
A#|-0-0-0-0-0-0-0-0-0-0-0-0-0-0-0-0-0-0-0-0-0-0-1-3-1-0-3--|
    * * * *       * * * *       * * * *
   1:52
C |--------------------------------------------------------|
G |--------------------------------------------------------|
D#|--------------------------------------------------------|
A#|-0-0-0-0-------0-0-0--------0-0-0-0-------0-1-3-1-0-3---|
F |-0-0-0-0-------0-0-0--------0-0-0-0-------0-1-3-1-0-3---|
A#|-0-0-0-0-0-0-0-0-0-0-1-1-1--0-0-0-0-0-0-0-0-1-3-1-0-3---|
    * * * *       * * *        * * * *
   2:00
C |--------------------------------------|
G |--------------------------------------|
D#|--------------------------------------|
A#|-0-0-0-0--00-00-00--0000000--0000001--|
F |-0-0-0-0--00-00-00--0000000--0000001--|
A#|-0-0-0-0--00-00-00--0000000--0000001--|
    * * * *  ** ** **  *******  ******
   2:08
C |--------------------------------------|
G |--------------------------------------|
D#|--------------------------------------|
A#|-0-0-0-0--00-00-00--0000000--0000001~-|
F |-0-0-0-0--00-00-00--0000000--0000001~-|
A#|-0-0-0-0--00-00-00--0000000--0000001~-|
    * * * *  ** ** **  *******  ******
   2:23
C |------|
G |------|
D#|------|
A#|-1~---|
F |-1~---|
A#|-1~---|

   2:25  x6
C |--------------------------------------------------------------------|
G |--------------------------------------------------------------------|
D#|--------------------------------------------------------------------|
A#|-0-0-0-0-0-0-0-0-0-0-0-0-0-1-1-1-1-0-0-0-0---------0-0-0-0-1-1-1-1--|
F |-0-0-0-0-0-0-0-0-0-0-0-0-0-1-1-1-1-0-0-0-0---------0-0-0-0-1-1-1-1--|
A#|-0-0-0-0-0-0-0-0-0-0-0-0-0-1-1-1-1-0-0-0-0-0-0-0-0-0-0-0-0-1-1-1-1--|
    * * * * * * * * * * * * *         * * * *         * * * *


Legend 

* = palm mute
~ = let ring
/ = pick slide


thats the end there you go
enjoy please comment if you think something is wrong
i'll fix it up
Suggest correction
comments
print report bad tab
12 comments total. Showing first comments.
0 reply
alex z 291 Nov 01, 2007 08:31 PM

sweet i lyk it

0 reply
Entity07 10 Nov 08, 2007 03:18 AM

very innacurate. sorry mate. nice try tho.

0 reply
Drummer32123 37 Nov 17, 2007 10:12 PM

if its so innacurate why dont u make an accurate one

guest
You may want to rate the tab now too:
select rating
Wanna post a correction for this tab? Suggest correction