Oops, an error
Loading. Please wait.

Dedicated tab

version 1
version 1

Whole song

Interactive

3,781 views 33 this week
1 commentread comment
1 2 3 4 5
x 4
add to favorites
×
Save as Personal and add changes to this tab that will be seen only by you. Learn more ›
×
You can save this tab as Personal to edit and correct it or add notes. All changes will be seen only by you. Learn more »
launch autoscroll
font size
0
reset
how to read this tab
guitar tuner
edit
Autoscroll
slow
fast
+/-
esc
set tempo
stop
PARKWAY DRIVE

DEDICATED

DROP B

TABBED BY andherembrace

VIDEO PLAYTHROUGH

https://drive.google.com/file/d/0B1AHRImLJJTYWWJpMW1vdWV5NTA/view?usp=sharing


----------------------------------------------------------------------------|
----------------------------------------------------------------------------|
-swell----------------------------------------------------------------------|
-0---/----------------------------------------------------------------------|
-0--/-----------------------------------------------------------------------|
-0-/------------------------------------------------------------------------|




0:13


----------------------------------------------------------------------|
----------------------------------------------------------------------|
----------------------------------------------------------------------|
----------------------------------------------------------------------|
----------------------------------------------------------------------|
-12\-0-0-000-0-0-13\-0-0-000-0-0-17\-0-0-000-0-0-0-10-12-13--13-13-10-|
     * * *** * *     * * *** * *     * * *** * *

-------------------------------------------------------------------|
-------------------------------------------------------------------|
-------------------------------------------------------------------|
-------------------------------------------------------------------|
-------------------------------------------------------------------|
-12\-0-0-000-0-0-13\-0-0-000-0-0-12\-0-0-000-0-0-333-333-222-222---|
     * * *** * *     * * *** * *     * * *** * * *** *** *** ***


----------------------------------------------------------------------|
----------------------------------------------------------------------|
----------------------------------------------------------------------|
----------------------------------------------------------------------|
----------------------------------------------------------------------|
-12\-0-0-000-0-0-13\-0-0-000-0-0-17\-0-0-000-0-0-0-10-12-13--13-13-10-|
     * * *** * *     * * *** * *     * * *** * *

-------------------------------------------------------------------|
-------------------------------------------------------------------|
-------------------------------------------------------------------|
-------------------------------------------------------------------|
-------------------------------------------------------------------|
-12\-0-0-000-0-0-13\-0-0-000-0-0-12\-0-0-000-0-0-333-333-222-222---|
     * * *** * *     * * *** * *     * * *** * * *** *** *** ***



----------------------------------------------------------------------|
----------------------------------------------------------------------|
----------------------------------------------------------------------|
----------------------------------------------------------------------|
----------------------------------------------------------------------|
-12\-0-0-000-0-0-13\-0-0-000-0-0-17\-0-0-000-0-0-0-10-12-13--13-13-10-|
     * * *** * *     * * *** * *     * * *** * *

----------------------------------|
----------------------------------|
----------------------------------|
----------------------------------|
----------------------------------|
-12\-0-0-000-0-0-13\-0-0-000-0-0--|
     * * *** * *     * * *** * *   




0:45


1
-///---------///--------///-------///----------------|
-16----------15---------16--------15-----------20\---|
-----------------------------------------------------|
-----------------------------------------------------|
-----------------------------------------------------|
-----------------------------------------------------|

2
-----------------------------------------------------|
-----------------------------------------------------|
-----------------------------------------------------|
-----------------------------------------------------|
-0---------------------------------------------------|
-0---------------------------------------------------|



-----------------------------------------------------------------|
-----------------------------------------------------------------|
-----------------------------------------------------------------|
-----------------------------------------------------------------|
-035---8---3---6---5-5-5-035-5-5-035---8---3---6---5-5-5-035-5-5-|
-----0---0---0---0-------------------0---0---0---0---------------|
 *** * * * * * * * * * * *** * * *** * * * * * * * * * * *** * *


------------------------------------------------------------------|
------------------------------------------------------------------|
------------------------------------------------------------------|
------------------------------------------------------------------|
-035---8---3---6---5-5-5-035-5-5-035---8---3---6---5-5-5-035-5-5--|
-----0---0---0---0-------------------0---0---0---0---------------0|
 *** * * * * * * * * * * *** * * *** * * *


------------------------------------------------------------------|
------------------------------------------------------------------|
------------------------------------------------------------------|
-770-770-550-550-332-0-235-3-2-0-770-770-550-550-332-0-235-3-2-0--|
------------------------------------------------------------------|
------------------------------------------------------------------|
 *** *** *** *** *** * *** * * * *** *** *** *** *** * *** * * *

------------------------------------------------------------------|
------------------------------------------------------------------|
------------------------------------------------------------------|
-770-770-550-550-332-0-235-3-2-0-770-770-550-550-332-0-235-3-2-0--|
------------------------------------------------------------------|
------------------------------------------------------------------|
 *** *** *** *** *** * *** * * * *** *** *** *** *** * *** * * *




1:07

1
------------------------------------------------------|
------------------------------------------------------|
---------------------------/10------------10----------|
-770-770--5-7-770-770--5-7------------14--------14----|
----------3-5----------3-5----------------------------|
------------------------------------------------------|
 *** ***      *** ***
2
------------------------------------------------------|
------------------------------------------------------|
------------------------------------------------------|
-770-770--5-7-770-770--5-7--------------------5-------|
----------3-5----------3-5--3--------5--------3-------|
----------------------------3--------5----------------|
 *** ***      *** ***


----------------------------------------------|
----------------------------------------------|
----------------------------------------------|
-770-770--5-7-770-770--5-7--770-770-550-550---|
----------3-5----------3-5--------------------|
----------------------------------------------|
 *** ***      *** ***       *** *** *** ***





1;17

----------------------------------------------------------------------|
----------------------------------------------------------------------|
----------------------------------------------------------------------|
----------------------------------------------------------------------|
----------------------------------------------------------------------|
-12\-0-0-000-0-0-13\-0-0-000-0-0-17\-0-0-000-0-0-0-10-12-13--13-13-10-|
     * * *** * *     * * *** * *     * * *** * *

-------------------------------------------------------------------|
-------------------------------------------------------------------|
-------------------------------------------------------------------|
-------------------------------------------------------------------|
-------------------------------------------------------------------|
-12\-0-0-000-0-0-13\-0-0-000-0-0-12\-0-0-000-0-0-333-333-222-222---|
     * * *** * *     * * *** * *     * * *** * * *** *** *** ***



----------------------------------------------------------------------|
----------------------------------------------------------------------|
----------------------------------------------------------------------|
----------------------------------------------------------------------|
----------------------------------------------------------------------|
-12\-0-0-000-0-0-13\-0-0-000-0-0-17\-0-0-000-0-0-0-10-12-13--13-13-10-|
     * * *** * *     * * *** * *     * * *** * *

----------------------------------|
----------------------------------|
----------------------------------|
----------------------------------|
----------------------------------|
-12\-0-0-000-0-0-13\-0-0-000-0-0--|
     * * *** * *     * * *** * *   




1:36


1
-///---------///--------///-------///----------------|
-16----------15---------16--------15-----------20\---|
-----------------------------------------------------|
-----------------------------------------------------|
-----------------------------------------------------|
-----------------------------------------------------|

2
-----------------------------------------------------|
-----------------------------------------------------|
-----------------------------------------------------|
-----------------------------------------------------|
-0---------------------------------------------------|
-0---------------------------------------------------|



-----------------------------------------------------------------|
-----------------------------------------------------------------|
-----------------------------------------------------------------|
-----------------------------------------------------------------|
-035---8---3---6---5-5-5-035-5-5-035---8---3---6---5-5-5-035-5-5-|
-----0---0---0---0-------------------0---0---0---0---------------|
 *** * * * * * * * * * * *** * * *** * * * * * * * * * * *** * *


------------------------------------------------------------------|
------------------------------------------------------------------|
------------------------------------------------------------------|
------------------------------------------------------------------|
-035---8---3---6---5-5-5-035-5-5-035---8---3---6---5-5-5-035-5-5--|
-----0---0---0---0-------------------0---0---0---0---------------0|
 *** * * * * * * * * * * *** * * *** * * *




1:50


------------------------------------------------------------------|
------------------------------------------------------------------|
------------------------------------------------------------------|
-770-770-550-550-332-0-235-3-2-0-770-770-550-550-332-0-235-3-2-0--|
------------------------------------------------------------------|
------------------------------------------------------------------|
 *** *** *** *** *** * *** * * * *** *** *** *** *** * *** * * *

------------------------------------------------------------------|
------------------------------------------------------------------|
------------------------------------------------------------------|
-770-770-550-550-332-0-235-3-2-0-770-770-550-550-332-0-235-3-2-0--|
------------------------------------------------------------------|
------------------------------------------------------------------|
 *** *** *** *** *** * *** * * * *** *** *** *** *** * *** * * *


1
------------------------------------------------------|
------------------------------------------------------|
---------------------------/10------------10----------|
-770-770--5-7-770-770--5-7------------14--------14----|
----------3-5----------3-5----------------------------|
------------------------------------------------------|
 *** ***      *** ***
2
------------------------------------------------------|
------------------------------------------------------|
------------------------------------------------------|
-770-770--5-7-770-770--5-7--------------------5-------|
----------3-5----------3-5--3--------5--------3-------|
----------------------------3--------5----------------|
 *** ***      *** ***


----------------------------------------------|
----------------------------------------------|
----------------------------------------------|
-770-770--5-7-770-770--5-7--770-770-550-550---|
----------3-5----------3-5--------------------|
----------------------------------------------|
 *** ***      *** ***       *** *** *** ***




2:11


1
-///---------------------///-///----------------------|
-15-----------------------13-16-----------------------|
------------------------------------------------------|
------------------------------------------------------|
------------------------------------------------------|
------------------------------------------------------|

2
------------------------------------------------------|
------------------------------------------------------|
------------------------------------------------------|
------------------------------------------------------|
------------------------------------------------------|
-000--0-000--000-0--000-0--0-000--0-000--000-0--000-0-|
 ***  * ***  *** *  *** *  * ***  * ***  *** *  *** *




1
-///-------------------------///-///--------GRAD BEND-------------[14]-|
-15---------------------------13-18-------------------------------[18]-|
-----------------------------------------------------------------------|
-----------------------------------------------------------------------|
-----------------------------------------------------------------------|
-----------------------------------------------------------------------|

2
-----------------------------------------------------------------------|
-----------------------------------------------------------------------|
-----------------------------------------------------------------------|
--------------------------------------------------------------------0--|
--------------------------------------------------------------------0--|
-0-000--0-000--000-0--000-0--0-000--0-000--000-12-15-12-10-12-13-12-0--|




2;26


12TH FRET HARMONICS
---------------------------------------------------------------------------|
---------------------------------------------------------------------------|
---------------------------------------------------------------------------|
------------------------------------------------------------3--1--4--1--0--|
------------------------------------------------------------3--1--4--1--0--|
-000-0-0--0000-0-0--000-0-0--0000-0-0--000-0-0--0000-0-0-00-3--1--4--1--0--|
 **H * *  **HH * *  **H * *  **HH * *  **H * *  **HH * * **   



1W/WAH 
-----------------------------------------------------------------------|
-15-[64 NOTES]-GRAD BEND--------------------------------RELEASE AT END-|
-----------------------------------------------------------------------|
-----------------------------------------------------------------------|
-----------------------------------------------------------------------|
-----------------------------------------------------------------------|


2
-------------------------------------------------------------------------------|
-------------------------------------------------------------------------------|
-------------------------------------------------------------------------------|
-----------_-------------------_-----------------------------------------------|
--^-------/ \---------^-------/ \---------^-----------^------------------------|
-1-0--0--0-1-0--0-0--1-0--0--0-1-0--0-0--1-0--0--0-0-1-0--0-0--444-444-333-111-|
      *         * *       *         * *       *           * *  *** *** *** ***


1
----------------------------------------------------------------------------|
-15-[48 NOTES /3 BENDS AND UNBENDS]-----------------------------------------|
----------------------------------------------------------------------------|
----------------------------------------------------------------------------|
----------------------------------------------------------------------------|
----------------------------------------------------------------------------|

2
----------------------------------------------------------------------------|
----------------------------------------------------------------------------|
----------------------------------------------------------------------------|
-----------_-------------------_--------------------------------------------|
--^-------/ \---------^-------/ \---------^-----------^---------------------|
-1-0--0--0-1-0--0-0--1-0--0--0-1-0--0-0--1-0--0--0-0-1-0--0-0---------------|
      *         * *       *         * *       *           * *  




2:49


-------------------------------------------------------------------------------------------------|
-------------------------------------------------------------------------------------------------|
-------------------------------------------------------------------------------------------------|
------0-----------------------0-----------------------0------------------------------------------|
------0-----------------------0-----------------------0------------------------------------------|
-1-0--0--0-0-1-3-4-3-1-0-1-0--0--0-0-1-3-4-3-1-0-1-0--0--0-0-1-3-4-3-1-0-1-0-4444-4444-3333-1111-|
 * *     * * * * * * * * * *     * * * * * * * * * *     * * * * * * * * * * **** **** **** ****



-----------------------------------------------------------------------------------------------|
-----------------------------------------------------------------------------------------------|
-----------------------------------------------------------------------------------------------|
------0-----------------------0-----------------------0----------------------------------------|
------0-----------------------0-----------------------0----------------------------------------|
-1-0--0--0-0-1-3-4-3-1-0-1-0--0--0-0-1-3-4-3-1-0-1-0--0--0-0-1-3-4-3-1-0-1-0-4444-4444-333-111-|
 * *     * * * * * * * * * *     * * * * * * * * * *     * * * * * * * * * * **** **** *** ***




---------------------------------------------------------------------------------------------------|
---------------------------------------------------------------------------------------------------|
---------------------------------------------------------------------------------------------------|
---------------------------------------------------------------------------------------------------|
---------------------------------------------------------------------------------------------------|
-0-0-0-0-0-0--00110-00440--0-0-0-0-0-0--00110-11100--0-0-0-0-0-0--00110-00440--1111-1111-3333-1111-|
 * * * * * *  ***** *****  * * * * * *  ***** *****  * * * * * *  ***** *****  **** **** ***  ****

----------------------------------------------------------------------------------------------------|
----------------------------------------------------------------------------------------------------|
----------------------------------------------------------------------------------------------------|
---------------------------------------------------------------------------------------------------0|
---------------------------------------------------------------------------------------------------0|
-0-0-0-0-0-0--00110-00440--0-0-0-0-0-0--00110-00440--0-0-0-0-0-0--00110-00440--1111-1111-3333-111--0|
 * * * * * *  ***** *****  * * * * * *  ***** *****  * * * * * *  ***** *****  **** **** **** ***



            
            
Suggest correction
Creating personal tab
Creating personal tab
You can edit any tab online and save it as your Personal.

You can edit, replace or remove any tab part or add personal notes – all changes will be seen only by you.

Personal tabs can be accessed anytime from any device, even offline.
Learn more »
comments
print report bad tab
1 comment total.
0 reply
RockbassHM 10 May 25, 2017 01:06 PM

Thanks a lot! So much fun to play!

guest
You may want to rate the tab now too:
select rating
Wanna post a correction for this tab? Suggest correction