Oops, an error
Loading. Please wait.

Deliver Me Tab

version 1
version 1

Whole song

Interactive

31,641 views 30 this week
3 commentsread comments
1 2 3 4 5
accurate
x 5
add to favorites
launch autoscroll
font size
0
reset
how to read this tab
guitar tuner
Autoscroll
slow
fast
+/-
esc
set tempo
stop
Help us to improve Ultimate-Guitar.com Take our survey!
×
Contributor
Etaan5 68
Deliver Me by Parkway Drive

This song is one their new songs, I will continue to tab this out when I get the 
chance. Enjoy for the time being. Email me at ultimateetaan@hotmail.com for any 
suggestions/corrections

Thanks to Jordan for correcting me =D

Drop A# tuning.

   C |--------------------------------------------| x4
   G |--------------------------------------------|
   D#|--------------------------------------------|
   A#|--------------------------------------------|
   F |-888-888-888-888-555-555-777-777------------|
   A#|-000-000-000-000-333-333-555-555------------|

   C |--------------------------------------------| x4
   G |--------------------------------------------|
   D#|--------------------------------------------|
   A#|--------------------------------------------|
   F |-8----8----8----8----5----5----7----7-------|
   A#|--00---00---00---00---33---33---55---55-----|

   C |----------------------------------------------------| Pre-Breakdown
   G |----------------------------------------------------|
   D#|----------------------------------------------------|
   A#|-7-7-7-7--8--7-7-7-7--8-----------10-----------7----|
   F |----------8-----------8--8-8-8-8--10--8-8-8-8--7----|
   A#|----------8-----------8-----------10-----------7----|

   C |--------------------------------------------| Breakdown
   G |--------------------------------------------|
   D#|--------------------------------------------|
   A#|--------------------------------------------|
   F |-0000000000---0000----0000----0000----------|
   A#|-0000000000---0000----0000----0000----------|

   C |-------------------------------vvv Let these notes ring out vvv------| 
   G |---------------------------------------------------------------------| x2
   D#|---------------------------------------------------------------------|
   A#|-7-7-7-7--8--7-7-7-7--8----------------------------------------------|
   F |----------8-----------8---0000000000---0000----0000--0000--0000------|
   A#|----------8-----------8---0000000000---0000----0000--0000--0000------|

   C |-------------------------------------------------------|  Build-up thing
   G |-------------------------------------------------------|
   D#|-----------------------------9-------10--12------------|
   A#|-0~----------------0~--------x-------x---x-------------|
   F |-0~----------------0~--------7-------8---10------------|
   A#|-0~----------------0~----------------------------------|

   C |---------------------------------------------------------|
   G |---------------------------------------------------------|
   D#|---------------------------------------------------------|
   A#|---------------------------------------------------------|
   F |-8-5-5-5-5-5-8-5-5-5-8-5-5-5-8-5-5-5-5-5-8-5-5-5-8-5-5-5-|
   A#|---------------------------------------------------------|

   C |------------------------------------------------------------|  x2
   G |------------------------------------------------------------|
   D#|------------------------------------------------------------|
   A#|------------------------------------------------------------|
   F |-10-7-7-7-7-7-10-7-7-7-10-7-7-7-7-3-3-3-3-3-7-3-3-3-7-3-3-3-|
   A#|------------------------------------------------------------|

   C |----------------------------------------------| x1
   G |----------------------------------------------|
   D#|----------------------------------------------|
   A#|-3~----------------------10--------9----------|
   F |-3~-----------------------x--------x----------|
   A#|-3~-----------------------8--------7----------|

 Acoustic Guitar Part

   C |----------------------------------------------------------| x2
   G |----------------------------------13---------13-----------|
   D#|-----9--10----(7)--9--10----(7)--------10--9------10--9---|
   A#|-12-------------------------------------------------------|
   F |----------------------------------------------------------|
   A#|----------------------------------------------------------|

  Rhythm Guitar
 
   C |----------------------------------------------| x2
   G |----------------------------------------------|
   D#|----------------------------------------------|
   A#|-8~-------10~----------0~---------------------|
   F |-8~-------10~----------0~---------------------|
   A#|-8~-------10~----------0~---------------------|

  Breakdown

  TORN           IN          TWO!!!!

   C |----------------------------------------------| x4
   G |----------------------------------------------|
   D#|----------------------------------------------|
   A#|----------------------------------------------|
   F |-000--000--000--000--7---7---7----------------|
   A#|-000--000--000--000--10--10--10---------------|

   C |----------------vvv I think this bit is right.... vvv--------------| x1
   G |-------------------------------------------------------------------|
   D#|-------------------------------------------------------------------|
   A#|-------------------------------------------------------------------|
   F |-000--000--000--5---5---5---7---7---7------------------------------|
   A#|-000--000--000--8---8---8---10--10--10-----------------------------|

  Bridge Leading into Acoustic Guitar Part

   C |----------------------------------------------|
   G |----------------------------------------------|
   D#|----------------------------------------------|
   A#|-0~-------------------------------------------|
   F |-0~-------------------------------------------|
   A#|-0~-------------------------------------------|

   C |-----------------------------------------------------| 
   G |-----------------------------------------------------|
   D#|----------9--10----9--9h10p9------5h7----------------|
   A#|-(12)--12---------------------10--------7------------|
   F |-----------------------------------------------------|
   A#|-----------------------------------------------------|

   C |-----------------------------------------------------|  Repeat Acoustic Bridge twice
   G |-------------------------8---------------------------|
   D#|----------9--10------------10--9-------7-------------|
   A#|-(12)--12---------------------------------10---------|
   F |-----------------------------------------------------|
   A#|-----------------------------------------------------|  

  Rhythm to Acoustic Bridge

   C |---------------------t12p8t13p8t12p8----t12p8t13p8t12p8------|
   G |-------------------------------------------------------------|
   D#|-------------------------------------------------------------|
   A#|-------------------------------------------------------------|
   F |-------------------------------------------------------------|
   A#|-12~----8~----10~--------------------------------------------|

  Distortion Guitar
  
   C |----------------------------------------------|
   G |----------------------------------------------|
   D#|----------------------------------------------|
   A#|-0~---------------------------------0--0------|
   F |-0~---------------------------------0--0------|
   A#|-0~---------------------------------0--0------|

   C |---------------------------------------------| x4
   G |-------------------------8----10p8-----------|
   D#|-----------------------------------10p9------|
   A#|-0~------8~-----10~--------------------------|
   F |-0~------8~-----10~--------------------------|
   A#|-0~------8~-----10~--------------------------|

The rest of the song is pretty much just repeating the intro.

comments
print report bad tab
3 comments total.
0 reply
Pwd4life1001 32 wrote on June 24 2010, 05:57 am

very close intro is accurate 4*

0 reply
mentalrazorback 56 wrote on August 26 2010, 06:29 pm

Drop A# right? But good tab.

0 reply
DanielHsv0 232 wrote on December 2 2012, 06:33 am

Drop A is Fucking Crazy!

I want to post or [tab]
guest
You may want to rate the tab now too:
select rating
Please do not post tabs as comments. Select "correction" instead!