Oops, an error
Loading. Please wait.

Dont Close Your Eyes Tab

version 3
version 3

Whole song

Interactive

1,554 views 1 this week
3 commentsread comments
1 2 3 4 5
excellent!
x 4
add to favorites
launch autoscroll
font size
0
reset
how to read this tab
guitar tuner
Autoscroll
slow
fast
+/-
esc
set tempo
stop
Help us to improve Ultimate-Guitar.com Take our survey!
×
Author
Difficulty
Tuning
intermediate
B F# B E G# C#
ok... ive changeed some notes. 

PARKWAY DRIVE
DON'T CLOSE YOUR EYES
DROP B

B F# B E G# C#

|-------------------------------------------------|   
|-------------------------------------------------|
|-------------------------------------------------|
|-------------------------------------------------|  X3
|--00---0h5h8-0h5h8-0h5h8-0h5h8-0h5h8-0h5h7-0h5h7-|
|--00---------------------------------------------|

|-------------------------------------------------|
|-------------------------------------------------|
|-------------------------------------------------|
|-------------------------0h3h7-0h3h7-0h2h5-0h2h5-|
|--00---0h5h8-0h5h8-0h5h8-------------------------|
|--00---------------------------------------------|


|-------------------------------------------------|   
|-------------------------------------------------|
|-------------------------------------------------|
|-------------------------------------------------|  X3
|--00~--0h5h8-0h5h8-0h5h8-0h5h8-0h5h8-0h5h7-0h5h7-|
|--00~--------------------------------------------|

|-------------------------------------------------|
|-------------------------------------------------|
|-------------------------------------------------|
|-------------------------0h3h7-0h3h7-0h2h5-0h2h5-|
|--00---0h5h8-0h5h8-0h5h8-------------------------|
|--00---------------------------------------------|


|-------------------------------------------------|   
|-------------------------------------------------|
|-------------------------------------------------|
|-------0h3h7-0h3h7-0h3h7-0h3h7-0h3h7-0h2h5-0h2h5-|  X3
|--00---------------------------------------------|
|--00---------------------------------------------|


|----------------------------------------------------|
|----------------------------------------------------|
|----------------------------------------------------|
|-------0h3h7-0h3h7-0h3h7-0h7h10-0h7h10-0h7h9-0h7h09-|
|--00------------------------------------------------|
|--00------------------------------------------------|

0:30. A 2ND GUITAR STAYS ON THIS PART TILL THE FAST PART at 1:03
|-------------------------------------------------|
|-------------------------------------------------|
|-------------------------------------------------|
|--7~~~-----8~~~----10~~~-----3~~~----------------|
|--7~~~-----8~~~----10~~~-----3~~~----------------|
|--5~~~-----5~~~-----5~~~-----3~~~----------------|


TAPPED 0:36
|-------------------------------------------------|   
|-------------------------------------------------|
|--t15p0-t14p0-t12p0-t10p0------------------------|
|-------------------------------------------------|  X3
|-------------------------------------------------|
|-------------------------------------------------|
|
|-------------------------------------------------|
|-------------------------------------------------|
|--t14p0-t12p0-t10p0-t9p0-------------------------|
|-------------------------------------------------|  
|-------------------------------------------------|
|-------------------------------------------------| play all that 4 times then 
play the chords again

1:03
|-------------------------------------------------------------------|   x6
|-------------------------------------------------------------------|
|-------------------------------------------------------------------|
|-----7p5-8p5-7p5----7p5-8p5-7p5-----7p5-8p5-7p5-----5p3-8p5-7p5----|
|-------------------------------------------------------------------|
|--55-------------55--------------55--------------33----------------|

1:22
|-------------------------------------------------------------------|   x4
|-------------------------------------------------------------------|
|-------------------------------------------------------------------|
|-----7-8-7~---------8-10-8~---------10-12-10~---10-8-7----8-7------|
|-------------------------------------------------------10-----10-8~|
|--55-------------77--------------88--------------------------------|

1:41
|-------------------------------------------------------------------|
|-------------------------------------------------------------------|
|-----------------------------------------------88881010101088887777|
|------5p0-7p0-8p0-7p0-5p0-8p0-10p0-8p0-10p0-12---------------------|
|--00---------------------------------------------------------------|
|--00---------------------------------------------------------------|

|-------------------------------------------------------------------|
|-------------------------------------------------------------------|
|-------------------------------------------------------------------|
|------5p0-7p0-8p0-7p0-5p0-8p0-10p0-8p0-10p0-12--7777555588887777---|
|--00---------------------------------------------------------------|
|--00---------------------------------------------------------------|   x2

|-------------------------------------------------------------------|
|-------------------------------------------------------------------|
|------------------------------------------------10-8-7----8-7------|
|-----7-8-7*---------8-10-8*---------10-12-10*----------10-----10-8~|
|-------------------------------------------------------------------|
|--55-------------77--------------88--------------------------------|

|-------------------------------------------------------------------|
|-------------------------------------------------------------------|
|------------------------------------------------10-8-7----8-7------|
|-----7-8-7*---------8-10-8*---------10-12-10*----------10-----10-8-|
|-------------------------------------------------------------------|
|--55-------------77--------------88--------------------------------|


|----------------------17~~br---22~~~b--r-----|
|---------------------------------------------|
|---------------------------------------------|
|--10-8-7----8-7-------------------------3-1-0|
|---------10-----10-8-0~~~~~~---0~~~-----3-1-0|
|---------------------0~~~~~~---0~~~-----3-1-0|
contd. on




''break this shit down''
|-------------------------------------------------|
|-------------------------------------------------|
|-------------------------------------------------|
|-1-0-000--00--000100---------7*------------------|  x4
|-1-0-000--00--000100---0h5h8----0h8p5\3*-0h5h8h5*|
|-1-0-000--00--000100-----------------------------| 
im not too good with artificial harmonics but im pretty sure...


2:43 ''don't close your eyes
|------------------------------|
|------------------------------|
|------------------------------|
|------------------------------| x 12
|------------------------------|
|-0-0-0--0-0-0--0-0-000-000-000|       : first guitar plays
|
| 2:54
|----------------------------------------------------|   
|----------------------------------------------------|
|----------------------------------------------------|
|----------------------------------------------------| x8
|-0h5h8-0h5h8-0h5h8-0h5h8-0h5h8-0h5h8-0h3h7-0h3h7----|  then this comes in 
|----------------------------------------------------|
|
| 3:05
|-0h5h8-0h5h8-0h5h8-0h5h8-0h5h8-0h5h8-0h3h7-0h3h7----|   
|----------------------------------------------------|
|----------------------------------------------------|
|----------------------------------------------------| x4
|----------------------------------------------------|
|----------------------------------------------------|  and then this on top 


3;16 THE NEXT FOUR GUITAR PLAY ON TOP OF EACH OTHER UNTIL FADE!!!
|--------------------------------------------------------|   
|--------------------------------------------------------|
|--------------------------------------------------------|
|----6*---6*-------6*---6*-------2*---2*-------3*---2*---|plays till fade out
|333---2*---2*-333---2*---2*-000---2*---2*-000---2*---2*-| x12
|333-----------333-----------000-----------000-----------|
|
|
|3:46 gtr 2
|-------------------------------------------------------|   
|-------------------------------------------------------|
|--5~/-10\-9~-/10/12-\10-9--10--14-1212-1010-9-1010-9---|
|--X----X--X---X--X---X--X--X---X--X-X--X-X--X-X-X--X---| x7
|--3~/--8\-7~-/8/-10-\8-\7-/8--/12\1010\8-8--7/8-8\-7---| plays until fade
|-------------------------------------------------------|
|
|
|4:00 gtr 3
|----------------------------------------------------|   
|----------------------------------------------------|
|----------------------------------------------------|
|----------------------------------------------------| 
|-0h5h8-0h5h8-0h5h8-0h5h8-0h5h8-0h5h8-0h5h8-0h5h8----| 
|----------------------------------------------------|
                      then
|----------------------------------------------------|   
|----------------------------------------------------|
|----------------------------------------------------|
|----------------------------------------------------| x 6
|-0h3h7-0h3h7-0h3h7-0h3h7-0h3h7-0h3h7-0h3h7-0h3h7----| play until fade
|----------------------------------------------------|
|
|
|4:00 gtr 4
|---12h13p12---10h12p10------------------------------|   
|------------------------12h13p12---10h12p10---------|
|----------------------------------------------------|
|----------------------------------------------------| x24 
|----------------------------------------------------| play until fade
|----------------------------------------------------|

ah. done bitchs.. 
Suggest correction
What's this?
You can suggest a correction to this tab. Community and Mods will review your correction and vote to approve or reject it.
comments
print report bad tab
3 comments total.
0 reply
TheShredoctor 39 wrote on June 4 2013, 05:01 am

are the harmonics pitched or natural? That's all I want to know otherwise a great tab 5 stars!

0 reply
deathfromala 4,791 wrote on June 4 2013, 06:10 am

Thanks man. Um.. from memory, pinch harmonic, but i wasn't very good at PH back then. but ill tune down in the day or 2 and check for you/update tab. :P

0 reply
DanielHsv0 232 wrote on January 7 2014, 01:07 am

Pinched Shredoctor!

guest
You may want to rate the tab now too:
select rating
Please do not post tabs as comments. Select "correction" instead!