Oops, an error
Loading. Please wait.

Five Months tab

version 1
version 1

Whole song

Interactive

63,085 views 27 this week
6 commentsread comments
1 2 3 4 5
x 13
add to favorites
×
Save as Personal and add changes to this tab that will be seen only by you. Learn more ›
×
You can save this tab as Personal to edit and correct it or add notes. All changes will be seen only by you. Learn more »
launch autoscroll
font size
0
reset
how to read this tab
guitar tuner
edit
Autoscroll
slow
fast
+/-
esc
set tempo
stop

Hey this is alex z again and this is five months

tabbed by = alex z
tuning = drop b

intro

---------------------------------------------------------------------|
-----------------------------------------------------10p8------------|
-------7-10-9------------7-10-9----7-----7-10-9------10p9-10---9---7-|
--8-8---------10---8------------10--------------10--------12-0---0---|
--8-8------------8-8--8--------------8-8-----------8-----------------|
--8-8------------8-8--8--------------8-8-----------8-----------------|x4


---------------------------------------------------------------------|
-----------------------------------------------------10p8------------|
-------7-10-9------------7-10-9----7-----7-10-9------10p9-10---9---7-|
--8-8---------10---10-----------10--------------10--------12-0---0---|
--8-8------------8-10-10--------------0-0-----------0----------------|
--8-8------------8-10-10--------------0-0-----------0----------------|x1

---------------------------------------------------------------------|
---------------------------------------------------------------------|
-------7-10-9------------7-10-9----7-----7-10-9----------------------|
--8-8---------10---10-----------10--------------10-------------------|
--8-8------------8-10-10--------------0-0-----------0-8h10-8p7h8-7-5-|
--8-8------------8-10-10--------------0-0-----------0----------------|
                                                      (leads into verse)

verse part 1


---------------------------------------------------------------------|
---------------------------------------------------------------------|
---------------------------------------------------------------------|
----------------------------------------------------5-----5h7---5----|
-5-----8-----------7-----7-8-7----5-----8---------------------8------|
---0-0---0-0-8-0-0---0-0-------10---0-0---0-0-8-0-0---0-0------------|


---------------------------------------------------------------------|
---------------------------------------------------------------------|
---------------------------------------------------------------------|
---------------------------------------------------------------------|
-5-----8-----------7-----7-8-7----5-----8-8-8-8-8-8-7-7-7-7----------|
---0-0---0-0-8-0-0---0-0-------10---0-0------------------------------|

---------------------------------------------------|
---------------------------------------------------|
---------------------------------------------------|
---------------------------------------------------|
-3------7-7-7-7-7-7-5-5-5-5------------------------|
---0-0---------------------------------------------|


harmony for verse


---------------------------------------------------------------------|
---------------------------------------------------------------------|
---------------------------------------------------------------------|
-3-----7-----------5-----5-7-5---3-----7-----------------------------|
-------------5-----------------7-------------5-----7-----7-8-5-7-----|
---0-0---0-0---0-0---0-0-----------0-0---0-0---0-0---0-0-------------|


---------------------------------------------------------------------|
---------------------------------------------------------------------|
---------------------------------------------------------------------|
-3-----7-----------5-----5-7-5---------------7-7-7-7-7-7-5-5-5-5-----|
-------------5-----------------7-8-----------------------------------|
---0-0---0-0---0-0---0-0-----------0-0---0-0-------------------------|

-----------------------------------------------|
-----------------------------------------------|
-----------------------------------------------|
-------5-5-5-5-5-5-3-3-3-3---------------------|
-7---------------------------------------------|
---0-0-----------------------------------------|

pre chorus/ verse thingy

---------------------------------------------------------------------|
---------------------------------------------------------------------|
---------------------------------------------------------------------|
---------------------------------------------------------------------|
---5-5-5-5-5-5-3-3-3----7-7-7-7-7-7-3-3-3----8-8-8-8-8-8-5-5-5-------|
-0--------------------3-------------------5--------------------------|

----------------------------|
----------------------------|
----------------------------|
----------------------------|
-10-7-7-12-8-8-10-7-7-8-5-5-|
----------------------------|

---------------------------------------------------------------------|
---------------------------------------------------------------------|
---------------------------------------------------------------------|
---------------------------------------------------------------------|
---5-5-5-5-5-5-3-3-3----7-7-7-7-7-7-3-3-3----8-8-8-8-8-8-5-5-5-------|
-0--------------------3-------------------5--------------------------|

----------------------------------|
----------------------------------|
----------------------------------|
-----10-----7---------------------|
---8----8-------10----------------|
-8--------8---8-------------------|


harmony for pre chorus/ verse thingy

---------------------------------------------------------------------|
---------------------------------------------------------------------|
---------------------------------------------------------------------|
---3-3-3-3-3-3-2-2-2---5-5-5-5-5-5-3-3-3---7-7-7-7-7-7-3-3-3---------|
---------------------------------------------------------------------|
-0-------------------3-------------------5---------------------------|

----------------------------|
----------------------------|
----------------------------|
----------------------------|
-10-7-7-12-8-8-10-7-7-8-5-5-|
----------------------------|

---------------------------------------------------------------------|
---------------------------------------------------------------------|
---------------------------------------------------------------------|
---3-3-3-3-3-3-2-2-2---5-5-5-5-5-5-3-3-3---7-7-7-7-7-7-3-3-3---------|
---------------------------------------------------------------------|
-0-------------------3-------------------5---------------------------|

----------------------------------------|
----------------------------------------|
----------------------------------------|
----------------------------------------|
---8-12-8---8---7-----------------------|
-8--------8---8-------------------------|

when the drum roles start before the breakdown all it is, is this

---------------------------------------|
---------------------------------------|
-----4---------------------------------|
---------------------------------------|
---------------------------------------|
---------------------------------------|

now breakdown part

-----------------------------------------------------------------|
-----------------------------------------------------------------|
-----------------------------------------------------------------|
---------5--------------7-------3--------------------------------|
-0-0-0-8---8-0-0--0-0-8---8-0-7---7------------------------------|
-0-0-0-------0-0--0-0-------0------------------------------------|

harmony part for breakdown

----------------------------------------|
----------------------------------------|
---------3--------------5---------------|
-------7---7----------7---7-----3-------|
-0-0-0-------0-0--0-0-------0-7---7-----|
-0-0-0-------0-0--0-0-------0-----------|


now the main chorus

------------------------------------------------------------|
------------------------------------------------------------|
------------------------------------------------------------|
------------10-10-10-10---------------------7-7-7-7---------|
-8--8-8-8-8-------------8-8-8-8--5--5-5-5-5---------8-8-8-8-|
-8-------------------------------5--------------------------|


---------------------------------------------------------|
---------------------------------------------------------|
---------------------------------------------------------|
---------------------------------------------------------|
-0-0-0-0--0-0--0--3---5--0--0-0--0-0-0--3-0-5------------|
-0-0-0-0--0-0--0----0----0--0-0--0-0-0----0--------------|


-----------------------------------------------------------------|
-----------------------------------------------------------------|
------------9-9-9-9-10-10-10-10-------------9-9-9-9-10-10-10-10--|
-----------------------------------------------------------------|
-8--8-8-8-8----------------------5--5-5-5-5----------------------|
-8-------------------------------5-------------------------------|

---------------------------------------------------------|
---------------------------------------------------------|
---------------------------------------------------------|
---------------------------------------------------------|
-0-0-0-0--0-0--0--3---5--0--0-0--0-0-0--3-0-5------------|
-0-0-0-0--0-0--0----0----0--0-0--0-0-0----0--------------|

clean guitar

-----------------------------------------------------|
-----------------------------------------------------|
-10---9----9--------10---12----9----7----------------|
-8----5----0--------8----10----0------7--------------|
-8----5----0--------8----10----0---------------------|
-8----5----0--------8----10----0---------------------|
keep this going through the whole part

solo back ground slowly ull will noe wen to come in

--------------------------------------8-------------------------------|
-----------8-----------8---8b-8-6-8-----8------------------------8----|
------9-10--------9-10--------------------10-9-10-----------9-10------|
---10----------10---------------------------------10-----10-----------|
----------------------------------------------------------------------|
-8-----------------------------------------------------8--------------|


-------------------------------------------------------------|
---------8---------------------------------------------------|
----9-10-----------------------------------------------------|
-10----------------------------------------------------------|
------------12-0-0-0-0-0-0-0-0-0-0-0-0-0-0-------------------|
------------12-0-0-0-0-0-0-0-0-0-0-0-0-0-0-------------------|

back 2 main intro part

---------------------------------------------------------------------|
-----------------------------------------------------10p8------------|
-------7-10-9------------7-10-9----7-----7-10-9------10p9-10---9---7-|
--8-8---------10---8------------10--------------10--------12-0---0---|
--8-8------------8-8--8--------------8-8-----------8-----------------|
--8-8------------8-8--8--------------8-8-----------8-----------------|x2

---------------------------------------------------------------------|
-----------------------------------------------------10p8------------|
-------7-10-9------------7-10-9----7-----7-10-9------10p9-10---9-9-7-|
--8-8---------10---10-----------10--------------10--------12-0-------|
--8-8------------8-10-10--------------0-0-----------0----------------|
--8-8------------8-10-10--------------0-0-----------0----------------|x2

main solo the madd one

---------------------13--------17b-17-15b-15---|
------15------13--------13-15------------------|
-12br----12br----12b---------------------------|
-----------------------------------------------|
-----------------------------------------------|
-----------------------------------------------|

tapping part

-T13p10-T13p10-T13p10-T13p10-T13p10-T13p10-T13p10-T13p10---|
-----------------------------------------------------------|
-----------------------------------------------------------|
-----------------------------------------------------------|
-----------------------------------------------------------|
-----------------------------------------------------------|

-T17p13-T17p13-T17p13-T17p13-T15p12-T15p12-T15p12-T15p12---|
-----------------------------------------------------------|
-----------------------------------------------------------|
-----------------------------------------------------------|
-----------------------------------------------------------|
-----------------------------------------------------------|

-T12p8-T12p8-T12p8-T12p8-T12p8-T12p8-T12p8-T12p8---|
---------------------------------------------------|
---------------------------------------------------|
---------------------------------------------------|
---------------------------------------------------|
---------------------------------------------------|

-13-15-13-15-13-15-13-12-10---------|
------------------------------------|
------------------------------------|
------------------------------------|
------------------------------------|
------------------------------------|

-17p13----17p13----17-----15p12----15p12----15----|
-------15-------15----15--------13-------13----13-|
--------------------------------------------------|
--------------------------------------------------|
--------------------------------------------------|
--------------------------------------------------|

-17-13-13-18-13-13-17-13-13-18-13-13-20-13-13-13---|
---------------------------------------------------|
---------------------------------------------------|
---------------------------------------------------|
---------------------------------------------------|
---------------------------------------------------|

-17p13----17p13----17-----15p12----15p12----15----|
-------15-------15----15--------13-------13----13-|
--------------------------------------------------|
--------------------------------------------------|
--------------------------------------------------|
--------------------------------------------------|

-13p12----15p12----13-----15bfull-bend--15~----------|
-------13-------13----13-----------------------------|
-----------------------------------------------------|
-----------------------------------------------------|
-----------------------------------------------------|
-----------------------------------------------------|

now the chorus

------------------------------------------------------------|
------------------------------------------------------------|
------------------------------------------------------------|
------------10-10-10-10---------------------7-7-7-7---------|
-8--8-8-8-8-------------8-8-8-8--5--5-5-5-5---------8-8-8-8-|
-8-------------------------------5--------------------------|


---------------------------------------------------------|
---------------------------------------------------------|
---------------------------------------------------------|
---------------------------------------------------------|
-0-0-0-0--0-0--0--3---5--0--0-0--0-0-0--3-0-5------------|
-0-0-0-0--0-0--0----0----0--0-0--0-0-0----0--------------|


-----------------------------------------------------------------|
-----------------------------------------------------------------|
------------9-9-9-9-10-10-10-10-------------9-9-9-9-10-10-10-10--|
-----------------------------------------------------------------|
-8--8-8-8-8----------------------5--5-5-5-5----------------------|
-8-------------------------------5-------------------------------|

---------------------------------------------------------|
---------------------------------------------------------|
---------------------------------------------------------|
-----------------------------------------------0---------|
-0-0-0-0--0-0--0--3---5--0--0-0--0-0-0--3-0-5--0---------|
-0-0-0-0--0-0--0----0----0--0-0--0-0-0----0----0---------|


done thats it hope u lyk coz i do

            
            
Suggest correction
Creating personal tab
Creating personal tab
You can edit any tab online and save it as your Personal.

You can edit, replace or remove any tab part or add personal notes – all changes will be seen only by you.

Personal tabs can be accessed anytime from any device, even offline.
Learn more »
comments
print report bad tab
6 comments total. Showing first comments.
0 reply
s-lip_kno-t 10 Jan 04, 2008 09:41 PM

the hours have become, irritations!!! and i find myself reduced to lifes immitation!!! Fuc@!ng awsum song with tab to
match.. nice work..

0 reply
Feaksy 82 May 06, 2008 02:51 AM

great tab man. solo was great and u got all the riffs right.

+1 reply
musicman1066 490 Jun 16, 2008 11:39 PM

The solo notes aren't bends there just slides, I'll show you when I get back.

guest
You may want to rate the tab now too:
select rating
Wanna post a correction for this tab? Suggest correction