Oops, an error
Loading. Please wait.

Flesh Bone And Weakness Bass Tab

version 1
version 1

Intro

Interactive

4,915 views 6 this week
2 commentsread comments
1 2 3 4 5
x 5
add to favorites
launch autoscroll
font size
0
reset
guitar tuner
Autoscroll
slow
fast
+/-
esc
set tempo
stop
Help us to improve Ultimate-Guitar.com Take our survey!
×
Author
Difficulty
novice
First Tab i really careif you dont like it but if theres anything you think is wrong 
comment with your fix thanks.-Stuart

----------------------------------------------------------|
---555----555-----666----555----777---777----666---555----|
-3-------3-------4-----3------5-----5------4-----3--------|
----------------------------------------------------------|

-----------------------------------------------------------|
---999---999---888---888---11-11-11---11-11-11---10-10-10--|
-7-----7-----6-----6-----9----------9-----------8----------|
---------------------------------------------------------0-|
Suggest correction
comments
print report bad tab
2 comments total.
0 reply
lil-bass-man 310 Apr 21, 2008 10:52 PM

Hey dude sounds alright to me, havent actually played it yet my dropped bass is in service, but when i get it back i'll play it and if i think its different i'll tell ya ok lol
5*

0 reply
Ziva9 16 Jul 15, 2011 01:30 PM

tunningggg????

guest
You may want to rate the tab now too:
select rating
Wanna post a correction for this tab? Suggest correction