Oops, an error
Loading. Please wait.

Gimme A D Tab

version 1
version 1

Whole song

Interactive

15,803 views 6 this week
7 commentsread comments
1 2 3 4 5
worth learning
x 8
add to favorites
launch autoscroll
font size
0
reset
how to read this tab
guitar tuner
Autoscroll
slow
fast
+/-
esc
set tempo
stop
Help us to improve Ultimate-Guitar.com Take our survey!
×
Author
Tuning
B F# B E G# C#
C#|--7p5p0-7p5p0-7p5p0-7p5p0-7p5p0-7p5p0--|
G#|---------------------------------------|
E |---------------------------------------|
B |---------------------------------------|
F#|---------------------------------------|
B |---------------------------------------|

   play these notes a few more time tho
C#|7p5p0-7p5p0-7p5p0-7p5p0-7p5p0--------------------------------------|
G#|------------------------------8p7p0-8p7p0-7p5p0-7p5p0-5p3p0-5p3p0--|
E |-------------------------------------------------------------------|
B |-------------------------------------------------------------------|
F#|-------------------------------------------------------------------|
B |-------------------------------------------------------------------|

C#|----------------------------------------------|
G#|----------------------------------------------|
E |----------------------------------------------|
B |-2---------------5-----4h5-------0---5-4-0~---|
F#|-2---------5----------------------------------|
B |-2----5-5-----5-----5--------0-0---0----------|

C#|------------------------------------------------------||-------------|
G#|------------------------------------------------------||-------------|
E |------------------------------------------------------||-------------|
B |-2--10--9--7--9--10--9--7----3--10--9--7--9--10--9--7-||--------7----|
F#|------------------------------------------------------||--0h7h8---8--|
B |------------------------------------------------------||-------------|

C#|------------------------------------------------------|
G#|------------------------------------------------------|
E |------------------------------------------------------|
B |-2---------------------------3----------5-------------|
F#|-2---------------------------3----------5-------------|
B |-2---------------------------3----------5-------------|

C#|---------------------------------------|
G#|---------------------------------------|
E |---------------------------------------| 
B |--------7------------------------------|
F#|--0h7h8---8----------------------------|
B |---------------------------------------|

C#|-----------------------------------------------------------------|
G#|-----------------------------------------------------------------|
E |------------------------------------------10---9----7/9/5----5/7-|
B |-0---------------------------------------------------------------|
F#|-0----0-0-0-0-0----0-0-0-0-0----0-0-0-0-0--8---7----5/7/5----3/5-|
B |-0----0-0-0-0-0----0-0-0-0-0----0-0-0-0-0----0----0--------------|

C#|-----------------------|
G#|-----------------------|
E |-----------------------|
B |-3----------4----------|
F#|-3----3--3--4----4--4--|
B |-3----3--3--4----4--4--|

C#|--------------------------------------------------------------|
G#|--------------------------------------------------------------|
E |--------------------------------------------------------------|
B |-----8888-7-5-3-----8888-7-5-7-----5555-3-5-7------7777-5-7-8-|
F#|-5-5------------3-3------------1-1-------------3-3------------|
B |-5-5------------3-3------------1-1-------------3-3------------|

   Strum These Chords
C#|--------------------------------------------------------------|
G#|--------------------------------------------------------------|
E |--------------------------------------------------------------|
B |--------------------------------------------------------------|
F#|-5--------------3--------------1---------------3--------------|
B |-5--------------3--------------1---------------3--------------|

dunno the last part
C#|------------------------------------------------------------------|
G#|------------------------------------------------------------------|
E |--------------------------------------7-8--8/10-8-7-8-7-----------|
B |-7-8-10-8-7-8/10-8-7-5-3-2h3-5-7-8-10-------------------10--------|
F#|------------------------------------------------------------------|
B |------------------------------------------------------------------|

C#|------------------------------------------------------------------------|
G#|------------------------------------------------------------------------|
E |------------------------------------------------------14-12-10-8--10-9--|
B |-0-----------------0-----------------0----------------------------------|
F#|-0-----8---7-8-----0-----8---7-8-----0-----8---7-8----12-10-8--10-8--7--|
B |-0---0---0------0--0---0---0------0--0---0---0------0-------------------|

#|-------------------------------------------------------------------------|
G#|------------------------------------------------------------------------|
E |------10--9-10----------10--9-10----------10--9-10----------10--9-10----|
B |-0-----------------0-----------------10---------------------------------|
F#|-0-----8---7-8-----0-----8---7-8-----10----8---7-8-----8----8---7-8-----|
B |-0---0---0------0--0---0---0------0--10--x---x------x--8--x---x------x--|

C#|------------------------------------------------------|
G#|------------------------------------------------------|
E |------------------------------------------------------|
B |-8--7--5--10--8--7--5--7----10--8--7--8--7--5--3--2---|
F#|------------------------------------------------------|
B |------------------------------------------------------|





Suggest correction new What's this?
You can suggest a correction to this tab. Community and Mods will review your correction and vote to approve or reject it.
comments
print report bad tab
7 comments total. Showing first comments.
0 reply
shibby j 86 wrote on May 3 2006, 08:37 pm

thanx for tabbing this :D couldnt find it anywhere else

+1 reply
JaVaR 33 wrote on November 8 2006, 01:49 am

awesome tab man, parkway rule!

+1 reply
yannbo8 35 wrote on March 19 2007, 04:40 am

good tab. However, it would have been better if you had completed the whole song but it is still good.

guest
You may want to rate the tab now too:
select rating
Please do not post tabs as comments. Select "correction" instead!