Oops, an error
Loading. Please wait.

Gimmie A D tab

version 1
version 1

Whole song

Interactive

6,693 views 3 this week
2 commentsread comments
1 2 3 4 5
x 4
add to favorites
×
Save as Personal and add changes to this tab that will be seen only by you. Learn more ›
×
You can save this tab as Personal to edit and correct it or add notes. All changes will be seen only by you. Learn more »
launch autoscroll
font size
0
reset
how to read this tab
guitar tuner
edit
Autoscroll
slow
fast
+/-
esc
set tempo
stop
      Intro
C#||--7p--5p--0h--7p--5p--0h--7p--5p--0h--7p--5p--0h--|
G#||--------------------------------------------------|
E ||--------------------------------------------------|
B ||--------------------------------------------------|  x4
F#||--------------------------------------------------|
B ||--------------------------------------------------|

Part wif singing
     
C#||--7p--5p--0h--7p--5p--0h--7p--5p--0h--7p--5p--0h--|
G#||--------------------------------------------------|
E ||--------------------------------------------------|
B ||--------------------------------------------------|  x2
F#||--------------------------------------------------|
B ||--------------------------------------------------|

--|--------------------------|--|--------------------------|
--|--------------------------|--|--------------------------|
--|--------------------------|--|--------------------------|
--|--------7-----8--7--------|--|--------7-----8--7--------|
--|--5--5-----5--------5--5--|--|--5--5-----5--------8-----|
--|--------------------------|--|--------------------------|

Play Those two bits 4 times.

then play this
|----------------------------|
|----------------------------|
|---------9------------------|
|--10--------0--7-----10-----|
|----------------------------|
|----------------------------|

-----------------------------|----------------------------|
-----------------------------|----------------------------|
-----------------------------|---------9------------------|
--9-----10-----12-----10-----|--10--------0--7-----10-----|
-----------------------------|----------------------------|
-----------------------------|----------------------------|
                                         PM 
----------------------------|----------------------------|
----------------------------|----------------------------|
----------------------------|---------9------------------|
--9-----10-----10-----9-----|--10--------0--7-----10-----|
----------------------------|----------------------------|
----------------------------|----------------------------|
                                         PM


-----------------------------|----------------------------|
-----------------------------|----------------------------|
-----------------------------|---------9------------------|
--9-----10-----12-----10-----|--10--------0--7-----10-----|
-----------------------------|----------------------------|
-----------------------------|----------------------------|
                                          PM


 
---------------------------|----------------------------|
---------------------------|----------------------------|
---------------------------|---------9------------------|
--9--------------7---------|--10--------0--7-----10-----|
--------0h-7h-8-------8----|----------------------------|
---------------------------|----------------------------|
                                        PM



-----------------------------|----------------------------|
-----------------------------|----------------------------|
-----------------------------|---------9------------------|
--9-----10-----12-----10-----|--10--------0--7-----10-----|
-----------------------------|----------------------------|
-----------------------------|----------------------------|
                                          PM
         
----------------------------|----------------------------|
----------------------------|----------------------------|
----------------------------|---------9------------------|
--9-----10-----10-----9-----|--10--------0--7-----10-----|
----------------------------|----------------------------|
----------------------------|----------------------------|
                                         PM               
 
-----------------------------|----------------------------|
-----------------------------|----------------------------|
-----------------------------|---------9------------------|
--9-----10-----12-----10-----|--10--------0--7-----10-----|
-----------------------------|----------------------------|
-----------------------------|----------------------------|
                                         PM               

----------------------------|----------------------------|
----------------------------|----------------------------|
----------------------------|---------9------------------|
--9-----10-----10-----9-----|--10--------0--7-----10-----|
----------------------------|----------------------------|
----------------------------|----------------------------|
                                         PM


-----------------------------|----------------------------|
-----------------------------|----------------------------|
-----------------------------|---------9------------------|
--9-----10-----12-----10-----|--10--------0--7-----10-----|
-----------------------------|----------------------------|
-----------------------------|----------------------------|
                                         PM               
----------------------------|----------------------------|
----------------------------|----------------------------|
----------------------------|---------9------------------|
--9-----10-----10-----9-----|--10--------0--7-----10-----|
----------------------------|----------------------------|
----------------------------|----------------------------|
                                         PM
 
-----------------------------|----------------------------|
-----------------------------|----------------------------|
-----------------------------|---------9------------------|
--9-----10-----12-----10-----|--10--------0--7-----10-----|
-----------------------------|----------------------------|
-----------------------------|----------------------------|
                                          PM

--------------------------|
--------------------------|
--------------------------|
--5-------------7---------|
--5----0h-7h-8-------8----|
--5-----------------------|

and den
|------------------------------|
|------------------------------|
|------------------------------|
|--0---------------------------|
|--0-----------0-0-0-0-0-0-0-0-|
|--0-----------0-0-0-0-0-0-0-0-|

------------------------------|------------------------------|
------------------------------|------------------------------|
------------------------------|------------------------------|
------------------------------|------------------------------|
--0-----------0-0-0-0-0-0-0-0-|--0-----------0-0-0-0-0-0-0-0-|
--0-----------0-0-0-0-0-0-0-0-|--0-----------0-0-0-0-0-0-0-0-|


     PM    PM                                                
-----------------------------|
-----------------------------|
--7-----9-----9/-11\-9--5/7--|
-----------------------------|
--5-----7-----7/--9\-7--3/5--|
-----0-----0-----------------| Play This 3 times then instead ofthe last bit play 

-----------------------------|
-----------------------------|
-----------------------------|
--3---3-3---4---4-4----------|
--3---3-3---4---4-4----------|
--3---3-3---4---4-4----------|

-|------------------------------|
-|------------------------------|
-|--------7-7-7-7-5-5-5-5-3-----|
-|--5--5------------------------|
-|--5--5------------------------|
-|--5--5------------------------| 

-|------------------------------|
-|------------------------------|
-|--------5-5-5-5-3-3-3-3-2-----|
-|--3--3------------------------|
-|--3--3------------------------|
-|--3--3------------------------|

------------------------------|------------------------------|
------------------------------|------------------------------|
--------3-3-3-3-2-2-2-2-0-----|--------5-5-5-5-3-3-3-3-0-----|
--1--1------------------------|--3--3------------------------|
--1--1------------------------|--3--3------------------------|
--1--1------------------------|--3--3------------------------| play twice 

den corus tingo 

|----------------------------|
|----------------------------|
|-----3--2--0--3--2--3--3s-5-|
|----------------------------|
|----------------------------|
|----------------------------|

------------------------|------------------------|----------------------3s-5
-------------------------|-------------3----8--6--|-----4--3----------------
--L--3--2--0----3--2-----|-------3--5-------------|-----------5----3--2-----
----------------------3--|------------------------|-------------------------
-------------------------|------------------------|-------------------------
-------------------------|------------------------|-------------------------

--------3-----1-----0-----|--10h-13-10h-13-8h-12-8h-12-6h-10-6h-10-5h-8-5h-8
-----6-----5-----3-----1--|-------------------------------------------------
--------------------------|-------------------------------------------------
--------------------------|-------------------------------------------------
--------------------------|-------------------------------------------------
--------------------------|-------------------------------------------------


  S   S S   S S   S S   S S  S S  S S  S S  S    E  Q.     E  Q    E   
----------------------------------------------|-----------------------|
--8h-11-8h-11-6h-10-6h-10---------------------|--8--6------3----------|
--------------------------5h-7-5h-7-3h-5-3h-5-|---------------2----2--|
----------------------------------------------|-----------------------|
----------------------------------------------|-----------------------|
----------------------------------------------|-----------------------|


 x2                    on second time of tis play 8 cord insted of 10       
----------------------------|----------------------------|
----------------------------|----------------------------|
----------------------------|----------------------------|
--0-----10-----9--10--------|---10----10-----9--10-------|
--0------8-----7---8--------|---10-----8-----7---8-------| Play.. you count!
--0--0------0---------0-----|---10--0------0---------0---|


 zeros pm
-|--------------------------|------------------------
-|--------------------------|------------------------
-|--------------------7-----|--------------------7---
-|--8-----7-----5-----------|--8-----7-----5---------
-|-----0-----0-----0-----0--|-----0-----0-----0-----0
-|--------------------------|-----------------------|


----------------------------|--------------------------|
----------------------------|--------------------------|
----------------------------|--------------------------|
--10-----8-----7-----10-----|--8-----7-----5-----3-----|
------0-----0-----0------0--|-----0-----0-----0-----0--|
----------------------------|--------------------------|

SOLO! TP = tremolo picing

   TP    TP    TP    TP       TP    TP    TP    TP    
      
--------------------------|--------------------------|
--------------11----10----|--10----------13----11----|
--12----10----------------|--------12----------------|
--------------------------|--------------------------|
--------------------------|--------------------------|
--------------------------|--------------------------|


   TP    TP    TP    TP       TP    TP    TP   TP TP                             
          
--------------------------|--------------11----10----|--13b--------13b------
--11----10----15----13----|--13----11----------------|----------------------
--------------------------|--------------------------|----------------------
--------------------------|--------------------------|----------------------
--------------------------|--------------------------|----------------------
--------------------------|--------------------------|----------------------


   W                      H           H              W                  
---Lb----------------|--------------------------|----------------------|
---------------------|--<>3b--------<>3b--------|--<>3b----------------|
---------------------|--------------------------|----------------------|
---------------------|--------------------------|----------------------|
---------------------|--------------------------|----------------------|
---------------------|--------------------------|----------------------|


   TP    TP    TP    TP       TP    TP    TP   TP    
   Q     Q     Q     Q        Q     Q     Q    Q     
--17----13----15----12----|--13----10----12----8----|
--------------------------|-------------------------|
--------------------------|-------------------------|
--------------------------|-------------------------|
--------------------------|-------------------------|
--------------------------|-------------------------|


  PM PM         PM PM            PM PM       PM PM        
 
------------------------------|--------------------------|
--------11--11--------10--10--|--------6--6--------5--5--|
--7--7----------7--7----------|--7--7--------5--5--------|
------------------------------|--------------------------|
------------------------------|--------------------------|
------------------------------|--------------------------|


  T          T          T          T           
  |---3---|  |---3---|  |---3---|  |---3---|   
   
----------------------------------------------|
--8p--6p--5--8p--6p--5--8p--6p--5--8p--6p--5--|
----------------------------------------------|
----------------------------------------------|
----------------------------------------------|
----------------------------------------------|


   T           T           T           T           
   |---3---|   |---3---|   |---3---|   |---3---|   
  
--------------------------------------------------|
--10p--8p--6--10p--8p--6--10p--8p--6--10p--8p--6--|
--------------------------------------------------|
--------------------------------------------------|
--------------------------------------------------|
--------------------------------------------------|


   T            T            T            T            
   |----3---|   |----3---|   |----3---|   |----3---|   
   
------------------------------------------------------|
--11p--10p--8--11p--10p--8--11p--10p--8--11p--10p--8--|
------------------------------------------------------|
------------------------------------------------------|
------------------------------------------------------|
------------------------------------------------------|


   T             T             T             T             
   |----3----|   |----3----|   |----3----|   |----3----|   
  
----------------------------------------------------------|
--13p--11p--10--13p--11p--10--13p--11p--10--13p--11p--10--|
----------------------------------------------------------|
----------------------------------------------------------|
----------------------------------------------------------|
----------------------------------------------------------|


------------------------|---------------15-15-17-17-|
--13b--------13b--------|--L------------------------|
------------------------|---------------------------|
------------------------|---------------------------|
------------------------|---------------------------|
------------------------|---------------------------|


--20-17-15-15-20-17-15-15-18-15-13-13-18-15-13-13-|
--------------------------------------------------|
--------------------------------------------------|
--------------------------------------------------|
--------------------------------------------------|
--------------------------------------------------|

--17-15-13-13-17-13-12-12-----------------------|----------------------|
--------------------------13-11-10-10-11-10-8-8-|--8b--------8b--------|
------------------------------------------------|----------------------|
------------------------------------------------|----------------------|
------------------------------------------------|----------------------|
------------------------------------------------|----------------------|

  S H.           E.   
---------------------|
--L-8----------------|
---------------------|
---------------------|
---------------------|
---------------------|


pickslide

OUTRO

                  S  S E  E  S  S S  S E  Q       S  S E  E  S  S S  S E  Q     
---|-------------------------------|-------------------------------|
---|----------3--------------------|----------3--------------------|
---|--0h-2-3-----3p-2-2h-3-2--0----|--0h-2-3-----3p-2-2h-3-2--0----|
---|-------------------------------|-------------------------------|
---|-------------------------------|-------------------------------|
---|-------------------------------|-------------------------------|

-----------3-------------1----|----------------------------------|
------------------------------|--3h-4p-3-------------------------|
--0h-2h-3-------0h-2h-3-------|-----------5p--3--2h-3p-2---------|
------------------------------|---------------------------5p--3--|
------------------------------|----------------------------------|
------------------------------|----------------------------------| X2 den 

u can guess way comes next












            
            
Suggest correction
Creating personal tab
Creating personal tab
You can edit any tab online and save it as your Personal.

You can edit, replace or remove any tab part or add personal notes – all changes will be seen only by you.

Personal tabs can be accessed anytime from any device, even offline.
Learn more »
comments
print report bad tab
2 comments total.
0 reply
yannbo8 10 Mar 19, 2007 12:47 AM

this is probably your best tab

0 reply
alex z 291 Jul 11, 2007 03:36 AM

meh bit taky some parts are rong fix them

guest
You may want to rate the tab now too:
select rating
Wanna post a correction for this tab? Suggest correction