Oops, an error
Loading. Please wait.

I Watched Bass Tab

version 1
version 1

Whole song

Interactive

838 views 1 this week
no commentswrite comment
1 2 3 4 5
please rate
add to favorites
launch autoscroll
font size
0
reset
guitar tuner
Tab Pro tools
  • play this tab
  • loop segment
  • change instrument
  • show fretboard
  • metronome
×
Best way to learn
"I Watched"
Autoscroll
slow
fast
+/-
esc
set tempo
stop
Contributor
I Watched                                     
Parkway Drive
Track 4



     W                   W                   W                 
F||-------------------|-------------------|-------------------|
C||-------------------|-------------------|-------------------|
G||-------------------|-------------------|-------------------|
C||--0----------------|--L----------------|--L----------------|


  W                   W                   H        S. S. Q    S  
-------------------|-------------------|------------------------|
-------------------|-------------------|------------------------|
-------------------|-------------------|------------------------|
--L----------------|--L----------------|--0--------1--1---------|


  H        S. S. Q    S    H        S. S. Q    S    H        S. S. Q    S  
------------------------|------------------------|------------------------|
------------------------|------------------------|------------------------|
------------------------|------------------------|------------------------|
--0--------1--1---------|--0--------1--1---------|--0--------1--1---------|


    H        H           W                 4x  E  H.           E   
|---------------------|--------------------||---------------------|
|*--------------------|-------------------*||---------------------|
|*--------------------|-------------------*||---------------------|
|---0--------1--------|--3-----------------||--0------------------|


  E  H.           E     S S S S S S S S S S S S S S S S  
---------------------|----------------------------------|
---------------------|----------------------------------|
---------------------|----------------------------------|
--0------------------|--0-0-0-0-0-0-0-0-1-1-1-1-1-1-1-1-|


  S S S S S S S S S S S S S S S S    S S S S S S S S S S S S S S S S  
----------------------------------|----------------------------------|
----------------------------------|----------------------------------|
----------------------------------|----------------------------------|
--3-3-3-3-3-3-3-3-3-3-3-3-3-3-3-3-|--0-0-0-0-0-0-0-0-1-1-1-1-1-1-1-1-|


  S S S S S S S S S S S S S S S S    S S S S S S S S S S S S S S S S  
----------------------------------|----------------------------------|
----------------------------------|----------------------------------|
----------------------------------|----------------------------------|
--3-3-3-3-3-3-3-3-3-3-3-3-3-3-3-3-|--0-0-0-0-0-0-0-0-1-1-1-1-1-1-1-1-|


  S S S S S S S S S S S S S S S S    S S S S S S S S S S S S S S S S  
----------------------------------|----------------------------------|
----------------------------------|----------------------------------|
----------------------------------|----------------------------------|
--3-3-3-3-3-3-3-3-3-3-3-3-3-3-3-3-|--0-0-0-0-0-0-0-0-1-1-1-1-1-1-1-1-|


                                     PM PM    PM PM    PM PM          
  S S S S S S S S S S S S S S S S    S  S  E  S  S  E  S  S  E  Q     
----------------------------------|----------------------------------|
----------------------------------|----------------------------------|
----------------------------------|----------------------------------|
--3-3-3-3-3-3-3-3-3-3-3-3-3-3-3-3-|--0--0--0--0--0--0--0--0--0-------|


  PM PM    PM PM    PM PM            PM PM    PM PM    PM PM          
  S  S  E  S  S  E  S  S  E  Q       S  S  E  S  S  E  S  S  E  Q     
----------------------------------|----------------------------------|
----------------------------------|----------------------------------|
----------------------------------|----------------------------------|
--0--0--0--0--0--0--0--0--0-------|--0--0--0--0--0--0--0--0--0-------|


  PM PM    PM PM    PM PM              PM PM    PM PM    PM PM          
  S  S  E  S  S  E  S  S  E  Q         S  S  E  S  S  E  S  S  E  Q     
----------------------------------||-----------------------------------|
----------------------------------||*----------------------------------|
----------------------------------||*----------------------------------|
--0--0--0--0--0--0--0--0--0-------||---0--0--0--0--0--0--0--0--0-------|


  PM PM    PM PM    PM PM                                 
  S  S  E  S  S  E  S  S  E  Q          W                 
-----------------------------------||--------------------|
----------------------------------*||*-------------------|
----------------------------------*||*-------------------|
--0--0--0--0--0--0--0--0--0--------||---0----------------|


  H        H              W                   H        H           
---------------------||--------------------|---------------------||
--------------------*||*-------------------|--------------------*||
--------------------*||*-------------------|--------------------*||
--1--------3---------||---0----------------|--1--------3---------||


  H        H           T T T T S S T T T T S S T T T T S Q    S  
--------------------|-------------------------------------------|
--------------------|-------------------------------------------|
--------------------|-------------------------------------------|
--1--------3--------|--0-0-0-0-0---0-0-0-0-0---0-0-0-0-0--------|


  T T T T S S T T T T S S T T T T S Q    S  
-------------------------------------------|
-------------------------------------------|
-------------------------------------------|
--0-0-0-0-0---0-0-0-0-0---0-0-0-0-0--------|


  T T T T S S T T T T S S T T T T S Q    S  
-------------------------------------------|
-------------------------------------------|
-------------------------------------------|
--0-0-0-0-0---0-0-0-0-0---0-0-0-0-0--------|


  T T T T S S T T T T S S T T T T S Q    S  
-------------------------------------------|
-------------------------------------------|
-------------------------------------------|
--0-0-0-0-0---0-0-0-0-0---0-0-0-0-0--------|


  T T T T S S T T T T S S T T T T S Q    S  
-------------------------------------------|
-------------------------------------------|
-------------------------------------------|
--0-0-0-0-0---0-0-0-0-0---0-0-0-0-0--------|


  T T T T S S T T T T S S T T T T S Q    S  
-------------------------------------------|
-------------------------------------------|
-------------------------------------------|
--0-0-0-0-0---0-0-0-0-0---0-0-0-0-0--------|


  T T T T S S T T T T S S T T T T S Q    S  
-------------------------------------------|
-------------------------------------------|
-------------------------------------------|
--0-0-0-0-0---0-0-0-0-0---0-0-0-0-0--------|


  T T T T S S T T T T S S T T T T S S         W                 
--------------------------------------|----|-------------------|
--------------------------------------|----|-------------------|
--------------------------------------|----|-------------------|
--0-0-0-0-0---0-0-0-0-0---0-0-0-0-0---|----|--0----------------|


  W                   W                   W                   E  E  Q     
-------------------|-------------------|-------------------|-------------|
-------------------|-------------------|-------------------|-------------|
-------------------|-------------------|-------------------|-------------|
--L----------------|--L----------------|--L----------------|--0--0--0----|


  H           H           H           E  E  Q       H           H         
-----------|-----------|-----------|-------------|-----------|-----------|
-----------|-----------|-----------|-------------|-----------|-----------|
-----------|-----------|-----------|-------------|-----------|-----------|
--L--------|--L--------|--L--------|--0--0--0----|--L--------|--L--------|


  H           E  E  Q       E  E  Q       H           H           E  E  Q     
-----------|-------------|-------------|-----------|-----------|-------------|
-----------|-------------|-------------|-----------|-----------|-------------|
-----------|-------------|-------------|-----------|-----------|-------------|
--L--------|--0--0-------|--0--0-------|--0--------|--L--------|--0--0-------|


  E  E  Q       H           H             E  E  Q       E  E  Q     
-------------|-----------|-----------||--------------|-------------|
-------------|-----------|-----------||*-------------|-------------|
-------------|-----------|-----------||*-------------|-------------|
--0--0-------|--0--------|--L--------||---0--0--0----|--0--0--0----|


  E  E  Q       H           E  E  Q       E  E  Q       E  E  Q     
-------------|-----------|-------------|-------------|-------------|
-------------|-----------|-------------|-------------|-------------|
-------------|-----------|-------------|-------------|-------------|
--0--0--0----|--L--------|--0--0--0----|--0--0--0----|--0--0--0----|


  H             E  E  Q       H             E  E  Q       E  E  Q     
------------||-------------|-----------||--------------|-------------|
-----------*||-------------|-----------||*-------------|-------------|
-----------*||-------------|-----------||*-------------|-------------|
--L---------||--0--0--0----|--L--------||---0--0--0----|--0--0--0----|


  E  E  Q       E  E  E  E     E  E  Q       E  E  Q       E  E  Q     
-------------|--------------|-------------|-------------|-------------|
-------------|--------------|-------------|-------------|-------------|
-------------|--------------|-------------|-------------|-------------|
--0--0--0----|--0--3--2--3--|--0--0--0----|--0--0--0----|--0--0--0----|


  E  E  E  E        E  E  Q       H           H           H           H         
---------------||--------------|-----------|-----------|-----------|-----------|
--------------*||*-------------|-----------|-----------|-----------|-----------|
-----------3--*||*-------------|-----------|-----------|-----------|-----------|
--0--3--2------||---0--0--0----|--L--------|--L--------|--L--------|--L--------|


  H           H           H           H           H           H          
-----------|-----------|-----------|-----------|-----------|-----------||
-----------|-----------|-----------|-----------|-----------|-----------||
-----------|-----------|-----------|-----------|-----------|-----------||
--L--------|--L--------|--L--------|--L--------|--L--------|--L--------||




Duration Legend
---------------
W - whole
H - half
Q - quarter
E - 8th
S - 16th
T - 32nd
X - 64th
. - note dotted
|-n-|  - n-tuplets


Tablature Legend
----------------
L - tied note
x - dead note
g - grace note
(n) - ghost note
> - accentuded note
NH - natural harmonic
AH - artificial harmonic
TH - tapped harmonic
SH - semi harmonic
PH - pitch harmonic
h - hammer on
p - pull off
b - bend
br - bendRelease
pb - preBend
pbr - preBendRelease
brb - bendReleaseBend
\n/ - tremolo bar dip
\n - tremolo bar dive
-/n - tremolo bar Release up
/n\ - tremolo bar inverted dip
/n - tremolo bar return
-\n - tremolo bar Release down
S - shift slide
s - legato slide
/ -  slide into from below or out of upwards
\ -  slide into from above or out of downwards
~ - vibrato
W - wide vibrato
tr - trill
TP - tremolo picking
T - tapping
S - slap
P - pop
< - fade in
^ - brush up
v - brush down
comments
We did not receive enough feedback on this tab! Please rate:
print report bad tab
1 2 3 4 5
I want to post or [tab]
guest
You may want to rate the tab now too:
select rating
Please do not post tabs as comments. Select "correction" instead!