Oops, an error
Loading. Please wait.

Idols And Anchors Tab

version 2
version 2

Solo

Interactive

13,000 views 6 this week
3 commentsread comments
1 2 3 4 5
excellent!
x 5
add to favorites
launch autoscroll
font size
0
reset
how to read this tab
guitar tuner
Tab Pro tools
  • play this tab
  • loop segment
  • change instrument
  • show fretboard
  • metronome
×
Best way to learn
"Idols And Anchors"
Autoscroll
slow
fast
+/-
esc
set tempo
stop
Contributor
Difficulty
Tuning
intermediate
B F# B E G# C#
                        SOLO TO IDOLS AND ANCHORS

                            BY: PARKWAY DRIVE

I couldn't find a tab on here that had this solo right, so i just listened to it
carefully and tabbed it to the correct tablature, hope you guys ENJOY!

                                 DROP B

                             (B-F#-B-E-G#-C#)

C#--------------------------------------------------------------------------|
G#--------------------------------------------------------15-17-17b~-17-----|
E-17-----15------14------12------14--12h14p12----12h14~---------------------|
B---1515----1515----1515----1515--------------15----------------------------|
F#--------------------------------------------------------------------------|
B---------------------------------------------------------------------------|

      T          T          T
C#-(17p13)----(15p12)----(13p10)----------13p12-----------------------------|
G#----x8--------x4--------x4-------13h15---------13h15----------------------|
E------------------------------------------------------12~------------------|
B---------------------------------------------------------------------------|
F#--------------------------------------------------------------------------|
B---------------------------------------------------------------------------|


C#---------------------------------5-12-8--------------------13-8-----------|
G#---T--------T--------T---------5--------10--------------10------10--------|
E-(14p10)---(14p9)---(12p7)--7-0-------------10--------10------------10-----|
B---------------------------------------------------12----------------------|
F#-----------------------------------------------13-------------------------|
B---------------------------------------------------------------------------|


C#-17-13-------17-13-------15-13-------15b~-15~--13-15-12b~-12---------------|
G#-------17-13-------17-13-------15-13---------------------------------------|
E----------------------------------------------------------------------------|
B----------------------------------------------------------------------------|
F#---------------------------------------------------------------------------|
B----------------------------------------------------------------------------|


C#-20----------20----------17-15--------------------------------------------|
F#----18-17-------18-17----------18-17-17h18p17-13--10~--8~--5b~-5~---------|
E-----------17----------17--------------------------------------------------|
B---------------------------------------------------------------------------|
F#--------------------------------------------------------------------------|
B---------------------------------------------------------------------------|


              Please rate and comment what you think on this tab
comments
print report bad tab
3 comments total.
0 reply
deathfromala wrote on January 28 2012, 09:16 pm

dont know bout the first 17 15 part... but im not gonna be a bitch 5/5

0 reply
Bulb 75 wrote on April 9 2012, 11:58 pm

i don't think the first set of tapping is tapping is tapping, i think is fast tremolo picking, but what do i know, beautiful tab agreed 5/5

0 reply
DanielHsv0 wrote on December 18 2012, 09:34 pm

C#-17-13-------17-13-------15-13--------|?
G#-------17-13-------17-13-------17-13--|?

I want to post or [tab]
guest
You may want to rate the tab now too:
select rating
Please do not post tabs as comments. Select "correction" instead!