Oops, an error
Loading. Please wait.

Idols And Anchors Tab

version 1
version 1

Interactive

147,412 views 36 this week
21 commentsread comments
1 2 3 4 5
accurate
x 18
add to favorites
launch autoscroll
font size
0
reset
how to read this tab
guitar tuner
Tab Pro tools
  • play this tab
  • loop segment
  • change instrument
  • show fretboard
  • metronome
×
Best way to learn
"Idols And Anchors"
Autoscroll
slow
fast
+/-
esc
set tempo
stop
Contributor
Difficulty
Tuning
intermediate
B F# B E G# C#
PARKWAY DRIVE - IDOLS AND ANCHORS

Only missing the solo, I think the rest is pretty much spot on 
though. Any corrects, post a comment, and I’ll update the tab.

Fans of Parkway Drive would be interested in my side project songs. Have a listen and send a friend request!
www.myspace.com/juzcook
www.myspace.com/triameraband

Tuning: Drop B

INTRO RIFF
0:00
C#|------------------------------------------|
G#|------10----10----------10----10----------|
E |---------12----12----------12----12-------|
B |-12---------------12----------------12----|
F#|------------------------------------------|
B |------------------------------------------|
/// Guitar 1
\\\ Guitar 2
C#|----------------------------------------------|
G#|----------------------------------------------|
E |----------------------------------------------|
B |----------------------------------------------|
F#|-8----------------5-----------------0---------|
B |-8----------------5-----------------0---------|


C#|------------------------------------------|
G#|------10----10----------13----13----------|
E |---------12----12----------10----10-------|
B |-12---------------12----------------------|
F#|------------------------------------------|
B |------------------------------------------|
/// Guitar 1
\\\ Guitar 2
C#|-------------------------------------------------------|
G#|-------------------------------------------------------|
E |-------------------------------------------------------|
B |-------------------------------------------------------|
F#|-8----------------5-----------------0------------------|
B |-8----------------5-----------------0-000-000-000-0----|


C#|------------------------------------------|
G#|------10----10----------13----13----------|
E |---------12----12----------10----10-------|
B |-12---------------12----------------------|
F#|------------------------------------------|
B |------------------------------------------|
/// Guitar 1
\\\ Guitar 2
C#|-----------------------------------------------------------|
G#|-----------------------------------------------------------|
E |-----------------------------------------------------------|
B |-8---------------------3---3-------------------------------|
F#|-8------8----8----5------5---5-0---------------------------|
B |-8--------12---12-5------------0-000-000-000-000---000-000-|


C#|------------------------------------------|
G#|------10----10----------13----13----------|
E |---------12----12----------10----10-------|
B |-12---------------12----------------------|
F#|------------------------------------------|
B |------------------------------------------|
/// Guitar 1
\\\ Guitar 2
C#|--------------------------------------------------------------------|
G#|--------------------------------------------------------------------|
E |---------------------------2h3p2p0--------------------------0---0---|
B |-8---------------------3----------------------------------7---7-----|
F#|-8------8----8----5------5----------0--------------0--------------0-|
B |-8--------12---12-5-----------------0--0-0-00-00-000--0-0---------0-|



RIFF 2
0:40
C#|---------------------------------|
G#|---------------------------------|
E |---------------------------------|
B |---------------------------------|
F#|-----8---8---5---8---8---5h8p5p0-|
B |-0-0---0---0---0---0---0---------|

C#|-----------------------------------------------|
G#|-----------------------------------------------|
E |-----------------------------------------------|
B |-----------------------------------------------|
F#|---5-----8---7h8p7p5---7-----10---10h12p10---8-|
B |-5---5-5---5---------8---8-8----8----------8---|

C#|---------------------------------|----------------------------------|
G#|---------------------------------|----------------------------------|
E |---------------------------------|----------------------------------|
B |---------------------------------|-----------------------------5----|
F#|-----8---8---5---8---8---5h8p5p0-|---10---10---8---8---7---7---3----|
B |-0-0---0---0---0---0---0---------|-5----5----5---5---5---5---5------|


RIFF 3
1:07
C#|-------------------------------------|
G#|-------------------------------------|
E |-------------------------------------|
B |-------------------------------------|
F#|-7h8p7----0--0-----7h8p7----0--0-----|
B |-------10-0--0-0-0-------10-0--0-0-0-|

C#|-------------------------------------------------|
G#|-------------------------------------------------|
E |-------------------------------------------------|
B |-------------------------------------------------|
F#|-7h8p7----12---10---8---7---10-8h10p8h10-7h8p7h8-|
B |-------10----0----0---0---0----------------------|

C#|-------------------------------------|
G#|-------------------------------------|
E |-------------------------------------|
B |-------------------------------------|
F#|-7h8p7----0--0-----7h8p7----0--0-----|
B |-------10-0--0-0-0-------10-0--0-0-0-|

C#|---------------------------------------|
G#|---------------------------------------|
E |---------------------------------------|
B |---------------------------------------|
F#|-7h8p7----8---7---3---0---8-7h8p7p0-3--|
B |-------10---0---0---0---0--------------|


BRIDGE (GUITAR 1)
1:47
C#|-----------------------------------------------------------------------|
G#|-----------------------------------------------------------------------|
E |-h7p0h7p0h7p0h7p0h7p0h7p0h7p0h7p0h9p0h9p0h9p0h9p0h10p0h10p0h10p0h10p0h-|
B |-----------------------------------------------------------------------|
F#|-----------------------------------------------------------------------|
B |-----------------------------------------------------------------------|

C#|------------------------------------------|
G#|------------------------------------------|
E |-h12p0h12p0h12p0h12p0h12p0h12p0h12p0h12p0-|
B |------------------------------------------|
F#|------------------------------------------|
B |------------------------------------------|

C#|--------------------------------------|
G#|--------------------------------------|
E |-h14p0h14p0h14p0h14p0h9p0h9p0h9p0h9p0-|
B |--------------------------------------|
F#|--------------------------------------|
B |--------------------------------------|


BRIDGE (GUITAR 2 HARMONIES)
1:47
C#|------------------------------------------|
G#|------------------------------------------|
E |-h14p0h14p0h14p0h14p0h14p0h14p0h14p0h14p0-|
B |------------------------------------------|
F#|------------------------------------------|
B |------------------------------------------|

C#|------------------------------------------|
G#|------------------------------------------|
E |-h12p0h12p0h12p0h12p0h14p0h14p0h14p0h14p0-|
B |------------------------------------------|
F#|------------------------------------------|
B |------------------------------------------|

C#|------------------------------------------|
G#|------------------------------------------|
E |-h19p0h19p0h19p0h19p0h19p0h19p0h19p0h19p0-|
B |------------------------------------------|
F#|------------------------------------------|
B |------------------------------------------|

C#|------------------------------------------|
G#|------------------------------------------|
E |-h19p0h19p0h19p0h19p0h19p0h19p0h19p0h19p0-|
B |------------------------------------------|
F#|------------------------------------------|
B |------------------------------------------|


BRIDGE (GUITAR 3)
1:59
C#|-------------------------------------------------|
G#|-------------------------------------------------|
E |-------x2--------------x2--------------x4--------|
B |-------------------------------------------------|
F#|-1-1-1-1-1-1-1-1-3-3-3-3-3-3-3-3-----------------|
B |---------------------------------0-0-0-0-0-0-0-0-|


BRIDGE RIFF 2
2:12
C#|------------------------------------|
G#|------------------------------------|
E |------------------------------------|
B |-9s10s9s5s7-------------------------|
F#|-7s8-s7s3s5-------0-------0-------0-|
B |------------0-0-0-0-0-0-0-0-0-0-0-0-|

C#|--------------------------------------|
G#|--------------------------------------|
E |--------------------------------------|
B |-9s10s9s5s7-----------------------5---|
F#|-7s8-s7s3s5-----------------2h3p2-3---|
B |------------0-0-0-5-0-3-0-0-2h3p2-----|


FINAL CHORUS RIFF
2:46
C#|----------------------------------|
G#|-----------10-8-------------8-6---|
E |----0h7h10-----------0h7h10-------|
B |----------------------------------|
F#|-0---------------0----------------|
B |-0---------------0----------------|
/// Guitar 1
\\\ Guitar 2
C#|-----------------------------------|
G#|-----------------------------------|
E |------------10-9-------------9-7---|
B |----0h10h12-----------0h9h10-------|
F#|-0----------------0----------------|
B |-0----------------0----------------|


C#|---------------------------------------------------|
G#|---------------------------------------------------|
E |---------------------------------------------------|
B |----7---------7------------------------------------|
F#|-8----8-5--5----8-5--0-----------------------------|
B |-8---------5---------0-000-000-000-000-000-000-000-|

Solo anyone?
comments
print report bad tab
21 comments total. Showing first comments.
0 reply
A7eX wrote on October 14 2007, 05:17 am

dude thanks heaps...
i've been working on this song 2. figuring it out and whatnot.
i've so far got basically what you had so thats a good sign. and i recon it sounds pretty spot on. thanks 4 the extra bitz
pwd 4 life

0 reply
Joboffal wrote on October 16 2007, 07:50 pm

brilliant tab!
good work

0 reply
alex z wrote on October 18 2007, 03:40 am

sweet dude try and tab the solo an dhows good is the horizons album fuk yer

I want to post or [tab]
guest
You may want to rate the tab now too:
select rating
Please do not post tabs as comments. Select "correction" instead!