Oops, an error
Loading. Please wait.

Idols And Anchors tab

version 2
version 2

Interactive

12,745 views 3 this week
3 commentsread comments
1 2 3 4 5
x 6
add to favorites
×
Save as Personal and add changes to this tab that will be seen only by you. Learn more ›
×
You can save this tab as Personal to edit and correct it or add notes. All changes will be seen only by you. Learn more »
launch autoscroll
font size
0
reset
how to read this tab
guitar tuner
backing track
0:00
0:00
edit
Autoscroll
slow
fast
+/-
esc
set tempo
stop
-------------------------------------------------------------------------------
	               Idols and Anchors - Parkway Drive
-------------------------------------------------------------------------------
Tabbed by: headbanger703
Email: smeerios@yahoo.com

Tuning: Drop B

Here is a video of me playing this song:
http://youtube.com/watch?v=2_YGdCVi2Hc


Guitar 1:
|-----5---5--------5---5--------------------------------5---5------8---8-----|
|-------8---8--------8---8--------------------------------8---8------8---8---|
|--7~-----------7~---------7~------------------------7~----------7---------7-|
|----------------------------------------------------------------------------|
|----------------------------------------------------------------------------|
|----------------------------------------------------------------------------|
Guitar 2:
|----------------------------------------------------------------------------|
|----------------------------------------------------------------------------|
|----------------------------------------------------------------------------|
|--7~-----------5~---------0~------------------------7~----------5~----------|
|--7~-----------5~---------0~------------------------7~----------5~----------|
|--7~-----------5~---------0~------------------------7~----------5~----------|


Repeat X2:
Guitar 1:
|-----5---5--------5---5--------------------------------5---5------8---8-----|
|-------8---8--------8---8--------------------------------8---8------8---8---|
|--7~-----------7~---------7~------------------------7~----------7---------7-|
|----------------------------------------------------------------------------|
|----------------------------000-000-000-0--000-000--------------------------|
|----------------------------000-000-000-0--000-000--------------------------|
Guitar 2:		     *** *** *** *  *** ***
|----------------------------------------------------------------------------|
|----------------------------------------------------------------------------|
|----------------------------------------------------------------------------|
|--7~-3---3-----5~-3---3---0------------------------7~-3---3----5~-3---3p5p3-|
|--7~---7---7---5~---7---7-0-000-000-000-0--000-000-7~---7---7--5~---7-------|
|--7~-----------5~---------0-000-000-000-0--000-000-7~----------5~-----------|
			     *** *** *** *  *** ***
In the middle of the Final breakdown switch to:
Repeat X3:
Guitar 1:
|---------------------------------------------------------------------------|
|---------------------------------------------------------------------------|
|---------------------------------------------------------------------------|
|-7----7-----0~---------------------------3-2p3p2-------5-5p7p5-------------|
|---10---10---------8-8-5-8-8-5p8p5-3-5----------3-5------------3-5---------|
|------------0~---00-0-0-0-0-0----------00-0----------00-0------------------|
Guitar 2:	  ** * * * * *      *   ** *     *    ** *      *
|---------------------------------------------------------------------------|
|---------------------------------------------------------------------------|
|---------------------------------------------------------------------------|
|------------0~~------------------------------------------------------------|
|------------0~~-----------------------------------------------------00-----|
|------------0~~-----------------------------------------------------00-----|
								     **
Guitar 1:
|---------------------------------------------------------------------------|
|---------------------------------------------------------------------------|
|---------------------------------------------------------------------------|
|-------------------------5-5-3-3-2-2---------------------------------------|
|----8-8-5-8-8-5p8p5-3-5--------------3-------------------------------------|
|--00-0-0-0-0-0------------0-0-0-0-0-0--------------------------------------|
   ** * * * * *      *     * * * * * *
Guitar 2:
|---------------------------------------------------------------------------|
|---------------------------------------------------------------------------|
|---------------------------------------------------------------------------|
|-------------------------0---0---0-0-0-------------------------------------|
|-------------------------0---0---0-0-0-------------------------------------|
|-------------------------0---0---0-0-0-------------------------------------|

Repeat X3:
Guitar 1 & 2:
|---------------------------------------------------------------------------|
|---------------------------------------------------------------------------|
|---------------------------------------------------------------------------|
|-2p3p2-----------2p3p2-----------2p3p2---7-5-3-2-5-2p3p2-2p3p2-------------|
|-------3-5-------------3-0-------------3-----------------------------------|
|---------0-0-0-0---------0-0-0-0-------------------------------------------|
            * * *           * * *
|---------------------------------------------------------------------------|
|---------------------------------------------------------------------------|
|---------------------------------------------------------------------------|
|-2p3p2-----------2p3p2-----------2p3p2-3-2-----2-2p3p2---------------------|
|-------3-5-------------3-0-----------------3-----------3-------------------|
|---------0-0-0-0---------0-0-0-0-------------5-----------------------------|
            * * *           * * *

Guitar 1 & 2:
|-----5---5--------5---5---------------------------|
|-------8---8--------8---8-------------------------|
|--7~-----------7~---------7~----------------------|
|--------------------------------------------------|
|----------------------------000-000-000-0-----7*--|
|----------------------------000-000-000-0---0-----|
    		             *** *** *** *
Guitar 1:
|-----5---5--------5---5--------------------------------5---5------8---8-----|
|-------8---8--------8---8--------------------------------8---8------8---8---|
|--7~-----------7~---------7~------------------------7~----------7---------7-|
|----------------------------------------------------------------------------|
|----------------------------000-000-000-0--000-000--------------------------|
|----------------------------000-000-000-0--000-000--------------------------|
Guitar 2:		     *** *** *** *  *** ***
|----------------------------------------------------------------------------|
|----------------------------------------------------------------------------|
|----------------------------------------------------------------------------|
|--7~-3---3-----5~-3---3---0------------------------7~-3---3----5~-3---3p5p3-|
|--7~---7---7---5~---7---7-0-000-000-000-0--000-000-7~---7---7--5~---7-------|
|--7~-----------5~---------0-000-000-000-0--000-000-7~----------5~-----------|
			     *** *** *** *  *** ***

Finger tapping section:
Repeat X3:
Guitar 1:
|----------------------------------------------------------------------------|
|----------------------------------------------------------------------------|
|----------------------------------------------------------------------------|
|-12-5-12-5-12-5-12-5-12-5-12-5-12-5-12-5-14-5-14-5-14-5-14-5-15-5-15-5-15-5-|
|----------------------------------------------------------------------------|
|----------------------------------------------------------------------------|
continued...:
|----------------------------------------------------------------------------|
|----------------------------------------------------------------------------|
|----------------------------------------------------------------------------|
|17-5-17-5-17-5-17-5-17-5-17-5-17-5-17-5-19-5-19-5-19-5-19-5-14-5-14-5-14-5--|
|----------------------------------------------------------------------------|
|----------------------------------------------------------------------------|

Repeat X4
Guitars 1 & 2:
|----------------------------------------------------------------------------|
|----------------------------------------------------------------------------|
|----------------------------------------------------------------------------|
|-9p10p7-5-7--------------------------------7p10p7-5-7-----------------------|
|-7p8-p9-3-5--------------------------------9p8-p9-3-5-----------------------|
|-----------0-0-0-0-0-0-0-0-0-0-0-0-0-0-0-0------------0-0-0-5-0-3-0-2-2p3p2-|
	    * * *   * * *   * * *   * * * 	       * * *   *   *


Guitar 1:
|-----5---5--------5---5--------------------------------5---5------8---8-----|
|-------8---8--------8---8--------------------------------8---8------8---8---|
|--7~-----------7~---------7~------------------------7~----------7---------7-|
|----------------------------------------------------------------------------|
|----------------------------000-000-000-0--000-000--------------------------|
|----------------------------000-000-000-0--000-000--------------------------|
Guitar 2:		     *** *** *** *  *** ***
|----------------------------------------------------------------------------|
|----------------------------------------------------------------------------|
|----------------------------------------------------------------------------|
|--7~-3---3-----5~-3---3---0------------------------7~-3---3----5~-3---3p5p3-|
|--7~---7---7---5~---7---7-0-000-000-000-0--000-000-7~---7---7--5~---7-------|
|--7~-----------5~---------0-000-000-000-0--000-000-7~----------5~-----------|
			     *** *** *** *  *** ***

Guitar 1:
|----------------------------------------------------------------------------|
|----------------------------------------------------------------------------|
|-------10--9--------9--7-------------------------10--9--------9--7----------|
|-5p7p8--------5p7p8-------7-5-------7------5p7p8--------5p7p8-------7-5-----|
|------------------------------8-7-5---8-5-------------------------------8-7-|
|----------------------------------------------------------------------------|
Same Riff Continued...:
|----------------------------------------------------------------------------|
|----------------------------------------------------------------------------|
|----------------10--9-------9-7---------------------------------------------|
|---7---7--5p7p8-------5p7p8-------------------------------------------------|
|-5---8----------------------------------------------------------------------|
|----------------------------------------------------------------------------|


Solo:
|-------------------------------------------------------------17131313131317-|
|---------------------------------------------------15-17-17^----------------|
|-17----15----14-----------12p14p12-10p12p10--\\14~--------------------------|
|---1414--1414--1414171414---------------------------------------------------|
|----------------------------------------------------------------------------|
|----------------------------------------------------------------------------|
    * *   * *   * *   * *
|-1313131313171313171313131313131713131313131713-------------15121212121212--|
|----------------------------------------------------------------------------|
|----------------------------------------------------------------------------|
|----------------------------------------------------------------------------|
|----------------------------------------------------------------------------|
|----------------------------------------------------------------------------|

|-151212121215121212-1310101010101013101010101010131010------13-12-----------|
|--------------------------------------------------------13^-------13^-------|
|----------------------------------------------------------------------12~---|
|----------------------------------------------------------------------------|
|----------------------------------------------------------------------------|
|----------------------------------------------------------------------------|
Finger-tappint
|----------------------------------------------------------------------------|
|----------------------------------------------------------------------------|
|-14101410141014101410141014101410--14914914914912--7127127127---------------|
|----------------------------------------------------------------------------|
|----------------------------------------------------------------------------|
|----------------------------------------------------------------------------|

|---------10p12p10--------------12p13p12-------1713------1713------1513------|
|------15---------10---------15----------12---------1713------1713------1713-|
|---14--------------10----14----------------13-------------------------------|
|12--------------------12----------------------------------------------------|
|----------------------------------------------------------------------------|
|----------------------------------------------------------------------------|


|-15^-15p13p15-15^~-13p15-12~-20-15-------20-15-------17-15------------------|
|-----------------------------------18-17-------18-17-------18-17-17p18p17---|
|--------------------------------------------------------------------------17|
|----------------------------------------------------------------------------|
|----------------------------------------------------------------------------|
|----------------------------------------------------------------------------|

|----------------------------------------------------------------------------|
|----------------------------------------------------------------------------|
|--14~~~---12~~~--9~~~~~~~~~~~-----------------------------------------------|
|----------------------------------------------------------------------------|
|----------------------------------------------------------------------------|
|----------------------------------------------------------------------------|

| /  slide up
| \  slide down
| h  hammer-on
| p  pull-off
| ~  vibrato
| +  harmonic
| *  Mute note
===============================================================================

            
            
Suggest correction
Creating personal tab
Creating personal tab
You can edit any tab online and save it as your Personal.

You can edit, replace or remove any tab part or add personal notes – all changes will be seen only by you.

Personal tabs can be accessed anytime from any device, even offline.
Learn more »
comments
print report bad tab
3 comments total.
0 reply
Machinae42 61 Dec 15, 2008 01:43 PM

Sounds pretty good. Only one thing I noticed in the solo. It should be

|--20--------------20--------------17--15----------------------------||
|------18--17----------18--18--------------18--17--17h--18p--17------||
|--------------19--------------19--------------------------------17--||
|--------------------------------------------------------------------||
|--------------------------------------------------------------------||
|--------------------------------------------------------------------||

in the second to last measure of the solo.

0 reply
metalbodom014 10 Mar 10, 2010 09:17 AM

looks pretty good and the timing is a little bit more realistic than all the other tabs i looked at. i think that you are missing a few parts though. but all together it sounds and looks good.

0 reply
DanielHsv0 57 Dec 18, 2012 04:23 PM

Intro = wrong Rest = Correct

guest
You may want to rate the tab now too:
select rating
Wanna post a correction for this tab? Suggest correction