Oops, an error
Loading. Please wait.

Idols And Anchors Tab

version 3
version 3

Intro

Solo

Interactive

62,135 views 207 this week
7 commentsread comments
1 2 3 4 5
excellent!
x 25
add to favorites
launch autoscroll
font size
0
reset
how to read this tab
guitar tuner
Tab Pro tools
  • play this tab
  • loop segment
  • change instrument
  • show fretboard
  • metronome
Autoscroll
slow
fast
+/-
esc
set tempo
stop
Contributor
Difficulty
Tuning
intermediate
B F# B E G# C#
DROP B TUNING

This was an old tab I made years ago and saw that people are still using it
(almost 40k views, from which 200 are from this week, THANK YOU!!!)
so I tried to update it to be a little better, providing more parts for the second guitar :--)
I hope you like it! 

https://www.youtube.com/watch?v=K6g36eFNb3w Here is my cover of the song if you are interested. (It might be
a little different, it's been like five years from when I wrote this tab?)

For tempo or rhythms, please listen to the song!

INTRO
GUITAR 1
C#|------------------------------------------|
G#|------10----10----------10----10----------|
E |---------12----12----------12----12-------|
B |-12---------------12----------------12----|
F#|------------------------------------------|
B |------------------------------------------|

GUITAR 2
C#|----------------------------------------------|
G#|----------------------------------------------|
E |----------------------------------------------|
B |----------------------------------------------|
F#|-8----------------5-----------------0---------|
B |-8----------------5-----------------0---------|

GUITAR 1
C#|------------------------------------------|
G#|------10----10----------13----13----------|
E |---------12----12----------10----10-------|
B |-12---------------12----------------------|
F#|------------------------------------------|
B |------------------------------------------|

GUITAR 2
C#|-------------------------------------------------------|
G#|-------------------------------------------------------|
E |-------------------------------------------------------|
B |-------------------------------------------------------|
F#|-8----------------5-----------------0------------------|
B |-8----------------5-----------------0-000-000-000-0----|

One guitar track keeps playing the intro riff while other guitar tracks starts playing this.

RIFF 1
C#|-----------------------------------------------------------|
G#|-----------------------------------------------------------|
E |-----------------------------------------------------------|
B |-8--3---3--------3---3-------------------------------------|
F#|-8----7---7---5----7---7-------0---------------------------|
B |-8------------5----------------0-000-000-000-000---000-000-|

C#|-------------------------------------------------------------|
G#|-------------------------------------------------------------|
E |-------------------------------------------------------------|
B |-8--3---3--------3----7h8p7----------------------------------|
F#|-8----7---7---5----7--------8--0--------------0--------------|
B |-8------------5----------------0--0-0-00-00-000--0-0-00-00-00|

RIFF 1 ENDING
GUITAR 1
C#|----------------------------------------------------------------------|
G#|----------------------------------------------------------------------|
E |----------------------------------------------------------------------|
B |-8--3---3--------3----7h8p7----------------------------7-----7--------|
F#|-8----7---7---5----7--------8--0--------------0-----------10----10--0-|
B |-8------------5----------------0--0-0-00-00-000--0--0---------------0-|

GUITAR 2
C#|----------------------------------------------------------------------|
G#|----------------------------------------------------------------------|
E |----------------------------------------------------------------------|
B |-8--3---3--------3----7h8p7----------------------------3-----3--------|
F#|-8----7---7---5----7--------8--0--------------0-----------7-----7---0-|
B |-8------------5----------------0--0-0-00-00-000--0--0---------------0-|


RIFF 2
GUITAR 1
C#|-----------------------------------|
G#|-----------------------------------|
E |-----------------------------------|
B |-----------------------------------|
F#|-----8---8---5---8---8---5h8p5---5-|
B |-5-5---5---5---5---5---5-------8---|

C#|-------------------------------------------------|
G#|-------------------------------------------------|
E |-------------------------------------------------|
B |-------------------------------------------------|
F#|-----8----7h8p7-----7------10----10h12p10----8---|
B |-7-7---7---------10----8-8----8------------8-----|

C#|-----------------------------------|----------------------------------|
G#|-----------------------------------|----------------------------------|
E |-----------------------------------|----------------------------------|
B |-----------------------------------|----------------------------------|
F#|-----8---8---5---8---8---5h8p5---5-|-10--10---8---8---7---7-----------|
B |-5-5---5---5---5---5---5-------8---|---7----7---7---7---7---10-7-10-7-|

GUITAR 2
C#|-----------------------------------------------|
G#|-----------------------------------------------|
E |-----------------------------------------------|
B |-----------------------------------------------|
F#|-0~~~~~~~~~~~~~~-5-5------7---7---3-3-3--------|
B |-0~~~~~~~~~~~~~~-5-5------7---7---3-3-3--------|
After this both guitarists go for the same riff and after one repeat, GUITAR 2 plays this

GUITAR 2
C#|---------------------------------------|
G#|---------------------------------------|
E |---------------------------------------|
B |-----7---7---3---7---7----3h7p3-0-3----|
F#|-0-0---0---0---0---0---0---------------|
B |---------------------------------------|

C#|-------------------------------------------|
G#|-------------------------------------------|
E |-------------------------------------------|
B |-----7---5h7p5---5------8---8h10p8---------|
F#|-0-0---0-------7-------------------8-12----|
B |--------------------8-8---8----------------|

C#|-----------------------------------|------------------------------------|
G#|-----------------------------------|------------------------------------|
E |-----------------------------------|------------------------------------|
B |-----7---7---3---7---7---3h7p3-0-3-|--8---8---7---7---------------------|
F#|-0-0---0---0---0---0---0-----------|------------------10---10---7---7---|
B |-----------------------------------|----7---7---7---7----7----7---7---7-|

RIFF 3
C#|-------------------------------------------------------------------------------------|
G#|-------------------------------------------------------------------------------------|
E |-------------------------------------------------------------------------------------|
B |-------------------------------------------7-----------------------------------------|
F#|7h8p7---0--------7h8p7----0--------7h8p7-------10----8----7----10-7h10p7h10p-7h8p7h8-|
B |-----10-0---0-0-0------10-0---0-0-0-----10---0----0----0----0------------------------|

C#|----------------------------------------------------------------------------|
G#|----------------------------------------------------------------------------|
E |----------------------------------------------------------------------------|
B |----------------------------------------------------------------------------|
F#|7h8p7---0---------7h8p7----0---------7h8p7----8---7-----------8-7h8p7-------|
B |-----10-0----0-0-0------10-0----0-0-0------10---0---0-10-0-5-0---------10---|


GUITAR 1
C#|------------------------------------------|
G#|------10----10----------10----10----------|
E |---------12----12----------12----12-------|
B |-12---------------12----------------12----|
F#|------------------------------------------|
B |------------------------------------------|

GUITAR 2
C#|-----------------------------------------------------------|
G#|-----------------------------------------------------------|
E |-----------------------------------------------------------|
B |-------------------------------------------------------[9]-|
F#|------------------------------------0----------------------|
B |------------------------------------0-000-000-000-0--0-----|


repeat RIFF 1


RIFF 4
GUITAR 1
|--------------------------------------------------------------------|
|--------------------------------------------------------------------|
|-----------------------------------t12p7-(x8)-t14p7-(x4)------------|
|-t12p8-(x8)-t14p10-(x4)-t15p10-(x4)---------------------t14p10-(x4)-|
|--------------------------------------------------------------------|
|--------------------------------------------------------------------|

GUITAR 2 (play this TWICE...)
C#|------------------------------------------------------------------|
G#|------------------------------------------------------------------|
E |------------------------------------------------------------------|
B |------------------------------------------------------------------|
F#|-8----------------------------------------0----------0------------|
B |-8--------------------------------000000000--000000000------------|

GUITAR 2 (...then proceed for this)
C#|------------------------------------------------------------------|
G#|------------------------------------------------------------------|
E |------------------------------------------------------------------|
B |------------------------------------------------------------------|
F#|---------------------------------------------------12\------------|
B |-8-(x16)-10-(x16)-0-(x32)-8-(x16)-10-(x16)-0-(x24)-12\------------|

GUITAR 3 (after GUITAR 1 has played itself once)
|-------------------------------------------------------------------------|
|-------------------------------------------------------------------------|
|-t14p10-(x8)-t12p9-(x4)-t14p10-(x4)-t15p10-(x8)-t17p10-(x4)-t12p10-(x4)--|
|-------------------------------------------------------------------------|
|-------------------------------------------------------------------------|
|-------------------------------------------------------------------------|



RIFF 5
C#|------------------------------------|
G#|------------------------------------|
E |------------------------------------|
B |-9/10\9-5-7-------------------------|
F#|-7/8-\7-3-5-------0-------0-------0-|
B |------------0-0-0-0-0-0-0-0-0-0-0-0-|


C#|--------------------------------------|
G#|--------------------------------------|
E |--------------------------------------|
B |-9/10\9-5-7-----------------------5---|
F#|-7/8-\7-3-5-----------------------3---|
B |------------0-0-0-5-0-3-0-2-2h3p2-----|

repeat RIFF 2
End RIFF 2 with this
GUITAR 1
C#|-----------------------------------|
G#|-----------------------------------|
E |------------10-9-------------9-7---|
B |----0h8h10-----------0h8h10--------|
F#|-0----------------0----------------|
B |-0----------------0----------------|

GUITAR 2
C#|-----------------------------------|
G#|-----------------------------------|
E |------------14-12------------12----|
B |----0h12h14----------0h12h14----15-|
F#|-0----------------0----------------|
B |-0----------------0----------------|

RIFF 6
GUITAR 1&2
C#|------------------------|
G#|------------------------|
E |------------------------|
B |-----------------7------|
F#|-8---12-10-8--5----8-5--|
B |-8------------5---------|

GUITAR 1
C#|-----------------------------------|
G#|-----------------------------------|
E |------------10-9-------------9-7---|
B |----0h8h10-----------0h8h10--------|
F#|-0----------------0----------------|
B |-0----------------0----------------|

GUITAR 2
C#|-----------------------------------|
G#|-----------------------------------|
E |------------14-12------------12----|
B |----0h12h14----------0h12h14----15-|
F#|-0----------------0----------------|
B |-0----------------0----------------|

GUITAR 3
C#|---------------------------------|
G#|---------------------------------|
E |---------------------------------|
B |---------------------------------|
F#|-0-------------------------------|
B |-0--000-000-000-000-000-000-000--|

GUITAR 1&2
C#|------------------------|
G#|------------------------|
E |---------------------7--|
B |-----------10----7------|
F#|-8---12-10----5----8----|
B |-8------------5---------|

GUITAR 1
C#|-----------------------------------|
G#|-----------------------------------|
E |------------10-9-------------9-7---|
B |----0h8h10-----------0h8h10--------|
F#|-0----------------0----------------|
B |-0----------------0----------------|

GUITAR 2
C#|-----------------------------------|
G#|-----------------------------------|
E |------------14-12------------12----|
B |----0h12h14----------0h12h14----15-|
F#|-0----------------0----------------|
B |-0----------------0----------------|

GUITAR 3
C#|---------------------------------|
G#|---------------------------------|
E |---------------------------------|
B |---------------------------------|
F#|-0-------------------------------|
B |-0--000-000-000-000-000-000-000--|

SOLO
For this solo part I tried to get the notes on guitar 2 to be where they would be played with the guitar 1
GUITAR 1
C#|-------------------------------------------------------------------------|
G#|--------10---------------------------------------------------------------|
E |-10-----9--------17-------15-------14------12-------12h14p12----12-14----|
B |-10-----7-----14----14-14----14-14----14-14---14-14----------15----------|
F#|-10----------------------------------------------------------------------|
B |-------------------------------------------------------------------------|

GUITAR 2
C#|-------------------------------------------------------------------------|
G#|-------------------------------------------------------------------------|
E |-------------------------------------------------------------------------|
B |-----------------7-------------------------5-----------------------3-----|
F#|-8-------5-------5-------------------------3-----------------------1-----|
B |-8-------5---------------------------------------------------------------|

GUITAR 1
C#|---------------17-13---15-12---13-10--------13p12------------------------|
G#|-15/17br17-----TREMOLO THESE NOTES----13/15-------13/15------------------|
E |---------------CHECK THE SONG FOR RHYTHM----------------12---------------|
B |---------------AND HOW MANY TIMES THEY-----------------------------------|
F#|---------------ARE PLAYED------------------------------------------------|
B |-------------------------------------------------------------------------|

GUITAR 2
C#|-------------------------------------------------------------------------|
G#|-------------------------------------------------------------------------|
E |-------------------------------------------------------------------------|
B |-5---------------------7-----------5-------------------------------------|
F#|-3-------------555555555---333333333--------8----------------5-----------|
B |--------------------------------------------8----------------5-----------|

GUITAR 1
C#|----------------------------------------------10-12p10-------|
G#|-------------------------------------------10----------10----|
E |--t14p10-(x8)-t14p9-(x4)-t12p7-(x4)-----10----------------10-|
B |-------------------------------------12----------------------|
F#|-------------------------------------------------------------|
B |-------------------------------------------------------------|

GUITAR 2
C#|-------------------------------------------------------------|
G#|-------------------------------------------------------------|
E |-------------------------------------------------------------|
B |--7-----------5----------------------3-----------------------|
F#|--5-----------3----------------------1-----------------------|
B |-------------------------------------------------------------|

GUITAR 1
C#|-------12-13p12------17p13-------17p13-----15p13------15b-13-15br----13h15-----------|
G#|-----13---------13----------17p13-----17p13-----17p13----------------------17br-17---|
E |---14--------------14----------------------------------------------------------------|
B |-15----------------------------------------------------------------------------------|
F#|-------------------------------------------------------------------------------------|
B |-------------------------------------------------------------------------------------|

GUITAR 2
C#|-------------------------------------------------------------------------------------|
G#|-------------------------------------------------------------------------------------|
E |-------------------------------------------------------------------------------------|
B |--5-------------------7--------------------5-----------------3-------------5---------|
F#|--3-------------------5--------------------3-----------------1-------------3---------|
B |-------------------------------------------------------------------------------------|

GUITAR 1
C#|--20------------20------------17-15-----------------|
G#|-----18-17-15-----18-17-15----------18-17-17h18p17--|
E |----------------------------------------------------|
B |----------------------------------------------------|
F#|----------------------------------------------------|
B |----------------------------------------------------|

GUITAR 2
C#|----------------------------------------------------|
G#|----------------------------------------------------|
E |----------------------------------------------------|
B |--7---------------------------5---------------------|
F#|--5---------------------------3---------------------|
B |----------------------------------------------------|

GUITAR 1
C#|----------------------------|
G#|-13----10----8----5br-5-----|
E |----------------------------|
B |----------------------------|
F#|----------------------------|
B |----------------------------| 

GUITAR 2
C#|----------------------------|
G#|----------------------------|
E |----------------------------|
B |-3-----5-----7--------------|
F#|-1-----3-----5--------------|
B |----------------------------|
comments
print report bad tab
7 comments total. Showing first comments.
+1 reply
juhizz wrote on May 14 2009, 03:22 am, edited on July 14 2014, 06:40 pm

PLEASE NOTE ! My mistake,, tuning should be drop B not Drop D (FIXED)

+1 reply
feedemtothepigs wrote on August 29 2009, 09:37 am

Is drop B tuned 1 1/2 or 2 (or more) steps down?

0 reply
juhizz wrote on August 29 2009, 03:31 pm

1 ½ steps down

I want to post or [tab]
guest
You may want to rate the tab now too:
select rating
Please do not post tabs as comments. Select "correction" instead!