Oops, an error
Loading. Please wait.

Its Hard To Speak Without A Tongue Guitar Pro

version 2
version 2

Whole song

Interactive

37,570 views 18 this week
3 commentsread comments
1 2 3 4 5
excellent!
x 13
add to favorites
guitar tuner
Autoscroll
slow
fast
+/-
esc
set tempo
stop
Contributor
Filesize
Instruments
94 Kb
rhythm guitar #1, rhythm guitar #2, lead guitar #1, lead guitar #2, bass, percussion, other
"Its Hard To Speak Without A Tongue"
demo version
Play now

or get full version for Free

Get full version now!
To learn and play this song
in Tab Pro, start free trial
Start free trial

or get $10 off Welcome Bonus

Get welcome bonus
Get access to Tab Pro version of “Its Hard To Speak Without A Tongue”!
Tab Pro is a premium guitar tab service, available on PC, Mac, iOS and Android
START FREE TRIAL
To download “Its Hard To Speak Without A Tongue” Guitar Pro tab click button below
Please note that you must have Guitar Pro software installed on your
computer in order to view this file.
comments
report bad tab
3 comments total.
0 reply
turjuque wrote on September 4 2009, 09:07 pm

just perfect I got nothing to say 5*

0 reply
turjuque wrote on September 12 2009, 06:54 am

I know it won't be corrected bu t the last running part of the solo is :

S S S S S S S S S S S S S S S S
--------12-12-14-14-10-10-12-12-----------------|
--12-12-------------------------10-10-12-12-7-7-|
------------------------------------------------|
------------------------------------------------|
------------------------------------------------|
------------------------------------------------|

S S S S S S S S S S S S S S S S W
------------------------------------|--14b----------------|
--10-10-5-5-7-7-3-3-5-5-2-2-3-3-0-0-|---------------------|
------------------------------------|---------------------|
------------------------------------|---------------------|
------------------------------------|---------------------|
------------------------------------|---------------------|

0 reply
ProgBassDude wrote on November 22 2013, 10:29 pm

Was wondering why the solo was in standard, then I saw these 22nd fret bends... Great tab, 5*

I want to post or [tab]
guest
You may want to rate the tab now too:
select rating
Please do not post tabs as comments. Select "correction" instead!