Oops, an error
Loading. Please wait.

Mutiny Bass Tab

version 1
version 1

Whole song

Interactive

5,762 views 1 this week
no commentswrite comment
1 2 3 4 5
please rate
add to favorites
launch autoscroll
font size
0
reset
guitar tuner
Autoscroll
slow
fast
+/-
esc
set tempo
stop
Help us to improve Ultimate-Guitar.com Take our survey!
×
Difficulty
intermediate
Tuning Drop C

Intro/Chorus

F||-------------------------|------------------------|------------------------|
C||*------------------------|------------------------|------------------------|
G||*------------------------|------------------------|------------------------|
C||---1--0------1--0--1--3--|--1--0------1--0--1--3--|--1--0------1--0--1--3--|

--------------------------------|------------------------|
--------------------------------|------------------------|
--3-3-3-3-4-4-4-4-1-1-1-1-4~----|------------------------|
--------------------------------|--1--0------1--0--1--3--|

------------------------|------------------------|
------------------------|------------------------|
------------------------|------------------------|
--1--0------1--0--1--3--|--1--0------1--0--1--3--|

---------------------------------||--------------------|-------|-------|-------|
--------------------------------*||--------------------|-------|-------|-------|
--3-3-3-3-----------------------*||--------------------|-------|-------|-------|
----------4-4-4-4-3-3-3-3-1~-----||--5-----------------|-------|-------|-------|

---------------------|--------------------|---------------------|
---------------------|--------------------|---------------------|
---------------------|--------------------|---------------------|
--5-------------6----|-----------1--------|--5-------------6----|


                         Verse
-----------------------||---------------------------|--------------------------|
-----------------------||*--------------------------|--------------------------|
-----------8--8--6--6--||*--------5--5--6--6--------|--5--5--6--6--------1--1--|
-----------------------||---5--5--------------6--6--|--------------1--1--------|

--------------------------|---------------------------||
--------------------------|--------------------------*||
--------5--5--6--6--------|--5--5--6--6--8--8--6--6--*||
--3--3--------------5--5--|---------------------------||

---------------------------|--------------------------|
*--------------------------|--------------------------|
*--------5--5--6--6--------|--5--5--6--6--------1--1--|
---5--5--------------6--6--|--------------1--1--------|

--------------------------|---------------------------||
--------------------------|--------------------------*||
--------5--5--6--6--------|--5--5--6--6--8--8--6--6--*||
--3--3--------------5--5--|---------------------------||

---------------------------|--------------------------|
*--------------------------|--------------------------|
*--------5--5--6--6--------|--5--5--6--6--------1--1--|
---5--5--------------6--6--|--------------1--1--------|

--------------------------|---------------------------||
--------------------------|--------------------------*||
--------5--5--6--6--------|--5--5--6--6--8--8--6--6--*||
--3--3--------------5--5--|---------------------------||

Chorus

-------------------------|------------------------|------------------------|
*------------------------|------------------------|------------------------|
*------------------------|------------------------|------------------------|
---1--0------1--0--1--3--|--1--0------1--0--1--3--|--1--0------1--0--1--3--|

--------------------------------|------------------------|
--------------------------------|------------------------|
--3-3-3-3-4-4-4-4-1-1-1-1-4~----|------------------------|
--------------------------------|--1--0------1--0--1--3--|

------------------------|------------------------|
------------------------|------------------------|
------------------------|------------------------|
--1--0------1--0--1--3--|--1--0------1--0--1--3--|


                                      Variation(Double Kick Part)
---------------------------------|-----------------------|---------------------------|
--------------------------------*|-----------------------|*--------------------------|
--3-3-3-3-----------------------*|-----------------------|*--------5--5--6--6--------|
----------4-4-4-4-3-3-3-3-1~-----|1-0-0-0-0-0-0-0-1-0-1-3|---5--5--------------6--6--|

--------------------------|--------------------------|
--------------------------|--------------------------|
--5--5--6--6--------1--1--|--------5--5--6--6--------|
--------------1--1--------|--3--3--------------5--5--|

---------------------------||-----------------------------------|
--------------------------*||*----------------------------------|
--5--5--6--6--8--8--6--6--*||*----------------------------------|
---------------------------||---5-5-5-5-3-3-3-3-7-7-7-7-5-5-5-5-|


                                         BreakDown
-----------------------------------|---------------------------------------------|----------------------------|
----------------------------------*|---------------------------------------------|*---------------------------|
----------------------------------*|---------------------------------------------|*---------------------5--8--|
--8-8-8-8-5-5-5-5-7-7-7-7-3-3-3-3--|-0-0-0-0*-000-000-000-0-0-0-0*--000-000-3h5--|---0--0-0-0--0-0-0----------|

-------------------------|---------------------------|
-------------------------|---------------------------|
-----7--3--------3----7--|---------------------5--8--|
--0--------0--0----------|--0--0-0-0--0-0-0----------|

--------------------------|---------------------------|
--------------------------|---------------------------|
-----7--3--------10----3--|---------------------5--8--|
--0--------0--0-----------|--0--0-0-0--0-0-0----------|

-------------------------|---------------------------|
-------------------------|---------------------------|
-----7--3--------3----7--|---------------------5--8--|
--0--------0--0----------|--0--0-0-0--0-0-0----------|

-----------------------------------||-------------------------|
----------------------------------*||*------------------------|
----------------------------------*||*------------------------|
--5-5-5-5-5-5-5-5-6-6-6-6-6-6-6-6--||---1--0------1--0--1--3--|

------------------------|------------------------|
------------------------|------------------------|
------------------------|------------------------|
--1--0------1--0--1--3--|--1--0------1--0--1--3--|

--------------------------------|------------------------|
--------------------------------|------------------------|
--3-3-3-3-4-4-4-4-1-1-1-1-4~----|------------------------|
--------------------------------|--1--0------1--0--1--3--|

------------------------|------------------------|
------------------------|------------------------|
------------------------|------------------------|
--1--0------1--0--1--3--|--1--0------1--0--1--3--|

---------------------------------||
--------------------------------*||
--3-3-3-3-----------------------*||
----------4-4-4-4-3-3-3-3-1~-----||

End on

||---------||
||---------||
||---------||
||1-0------||
Suggest correction
What's this?
You can suggest a correction to this tab. Community and Mods will review your correction and vote to approve or reject it.
comments
We did not receive enough feedback on this tab! Please rate:
print report bad tab
1 2 3 4 5
guest
You may want to rate the tab now too:
select rating
Please do not post tabs as comments. Select "correction" instead!