Oops, an error
Loading. Please wait.

Mutiny Guitar Pro

version 1
version 1

Whole song

Interactive

8,312 views 6 this week
6 commentsread comments
1 2 3 4 5
excellent!
x 4
add to favorites
guitar tuner
Autoscroll
slow
fast
+/-
esc
set tempo
stop
Filesize
Instruments
58 Kb
rhythm guitar, lead guitar, bass, percussion
"Mutiny"
demo version
Play now

or get full version for Free

Get full version now!
To learn and play this song
in Tab Pro, start free trial
Start free trial

or get $10 off Welcome Bonus

Get welcome bonus
Get access to Tab Pro version of “Mutiny”!
Tab Pro is a premium guitar tab service, available on PC, Mac, iOS and Android
START FREE TRIAL
To download “Mutiny” Guitar Pro tab click button below
Please note that you must have Guitar Pro software installed on your
computer in order to view this file.
comments
report bad tab
6 comments total. Showing first comments.
0 reply
TheDarkestNights wrote on May 8 2007, 01:20 pm

Nice tab.

0 reply
alex z wrote on July 1 2007, 06:35 am

nice

0 reply
JaVaR wrote on March 11 2008, 08:45 pm

The pre-chorus part:
C#|--------------------------------------|
G#|--------------------------------------|
E |--------------------------------------|
B |--------------------------------------|
F#|--5-5--5-5-6-6--6-6--5-5-6-6-8-8-6-6--|
B |--5-5-----------6-6-------------------|

C#|--------------------------------------|
G#|-----------------------------*-*------|
E |-----------------------------7-7-*-*--|
B |---------------------------------7-7--|
F#|--5-5--5-5-6-6------5-5-6-6-----------|
B |--5-5-----------6-6-------------------|
is wrong, its actually
C#|--------------------------------------|
G#|--------------------------------------|
E |--------------------------------------|
B |--------------------------------------|
F#|--5-5--5-5-6-6--6-6--5-5-6-6-8-8-6-6--|
B |--5-5-----------6-6-------------------|

C#|--------------------------------------|
G#|-----------------------------*-*------|
E |-----------------------------5-5-*-*--|
B |---------------------------------5-5--|
F#|--3-3--5-5-6-6------5-5-6-6-----------|
B |--3-3-----------5-5-------------------|
Apart from the fact it's only guitar 2, same chords for
33- 55 part for guitar 1. The harmonics might be wrong though.

I want to post or [tab]
guest
You may want to rate the tab now too:
select rating
Please do not post tabs as comments. Select "correction" instead!