Oops, an error
Loading. Please wait.

Pandora tab

version 2
version 2

Whole song

Interactive

10,248 views 1 this week
no commentswrite comment
1 2 3 4 5
x 10
add to favorites
×
Save as Personal and add changes to this tab that will be seen only by you. Learn more ›
×
You can save this tab as Personal to edit and correct it or add notes. All changes will be seen only by you. Learn more »
launch autoscroll
font size
0
reset
how to read this tab
guitar tuner
edit
Autoscroll
slow
fast
+/-
esc
set tempo
stop
Author
tab: pandora
band: parlway drive
by: mika irvine aka grindcore kid. any concerns email me at, metal_kid_mik@hotmail.com
rate this tab

Guitar 1: over top of guitar 2
C#|--5-------5-------1-------1------------------------------------------|
G#|----6-8-5---6-8-5---3-5-1---3-5-1------------------------------------|
E |---------------------------------------------------------------------|
B |---------------------------------------------------------------------|
F#|---------------------------------------------------------------------|
B |---------------------------------------------------------------------|

Guitar 2:
C#|----------------------------------------------------------------------|
G#|----------------------------------------------------------------------|
E |----------------------------------------------------------------------|
B |-0~-----------------------------------8~--------------10~-------------|
F#|-0~-----------------------------------8~--------------10~-------------|
B |-0~-----------------------------------8~--------------10~-------------|

C#|--5-------5-------1-------1------------------------------------------|
G#|----6-8-5---6-8-5---3-5-1---3-5-1------------------------------------|
E |---------------------------------------------------------------------|
B |---------------------------------------------------------------------|
F#|---------------------------------------------------------------------|
B |---------------------------------------------------------------------|

Guitar 2: x2
C#|----------------------------------------------------------------------|
G#|----------------------------------------------------------------------|
E |----------------------------------------------------------------------|
B |------3---2---2p0------3---2---2p0-3-3--3---2---2p0-5-5--3---2---2p0--|
F#|-0-0--------------0-0--------------1-1----1---1-----3-3----3---3------|
B |-0-0----0---0-----0-0----0---0----------------------------------------|

Guitar 1: x2
C#|----------------------------------------------------------------------|
G#|----------------------------------------------------------------------|
E |----------------------------------------------------------------------|
B |-777-333-000-333-000-----000---------000-222-333-555-333-222-333------|
F#|---------------------333-----333-333----------------------------------|
B |----------------------------------------------------------------------|

Guitar 2:
C#|----------------------------------------------------------------------|
G#|----------------------------------------------------------------------|
E |----------------------------------------------------------------------|
B |-0~----------------10~----------------5---------------10~-------------|
F#|-0~----------------10~----------------5---------------10~-------------|
B |-0~----------------10~----------------5---------------10~-------------|

Guitar 2:
C#|----------------------------------------------------------------------|
G#|---------------------------------------------8~-------------------8~--|
E |-----------------------------------------------7~---------------7~----|
B |-0~----------------10~---------------------------5~-----------5~------|
F#|-0~----------------10~----------------0-0-0-----------5-5-5-----------|
B |-0~----------------10~----------------0-0-0-----------5-5-5-----------|

Guitar 1&2:   x2
C#|----------------------------------------------------------------------|
G#|----------------------------------------------------------------------|
E |---------7\-----------7\-----------7\---------------------------------|
B |-0-0-0---x----0-0-0---x----0-0-0---x----0-0-0-2-2-2-3-3-3-2-2-2-------|
F#|-0-0-0---5\---0-0-0---5\---0-0-0---5\---------------------------------|
B |-0-0-0--------0-0-0--------0-0-0--------------------------------------|

Guitar 1:
C#|--5-------5-------1-------1------------------------------------------|
G#|----6-8-5---6-8-5---3-5-1---3-5-1------------------------------------|
E |---------------------------------------------------------------------|
B |---------------------------------------------------------------------|
F#|---------------------------------------------------------------------|
B |---------------------------------------------------------------------|


Guitar 2:
C#|----------------------------------------------------------------------|
G#|----------------------------------------------------------------------|
E |----------------------------------------------------------------------|
B |-0~----------------10~----------------3~---------------5----5-3-2~----|
F#|-0~----------------10~----------------3~-----------5-5-5--------------|
B |-0~----------------10~----------------3~-----------5-5-5--------------|

Guitar 1:
C#|--5-------5-------1-------1------------------------------------------|
G#|----6-8-5---6-8-5---3-5-1---3-5-1------------------------------------|
E |---------------------------------------------------------------------|
B |---------------------------------------------------------------------|
F#|---------------------------------------------------------------------|
B |---------------------------------------------------------------------|

Guitar 2:
C#|----------------------------------------------------------------------|
G#|---------------------------------------------8~-------------------8~--|
E |-----------------------------------------------7~---------------7~----|
B |-0~----------------10~---------------------------5~-----------5~------|
F#|-0~----------------10~----------------3-3-3-----------5-5-5-----------|
B |-0~----------------10~----------------3-3-3-----------5-5-5-----------|

C#|--5-------5-------1-------1------------------------------------------|
G#|----6-8-5---6-8-5---3-5-1---3-5-1------------------------------------|
E |---------------------------------------------------------------------|
B |---------------------------------------------------------------------|
F#|---------------------------------------------------------------------|
B |---------------------------------------------------------------------|

Guitar 2: x2
C#|----------------------------------------------------------------------|
G#|----------------------------------------------------------------------|
E |----------------------------------------------------------------------|
B |------3---2---2p0------3---2---2p0-3-3--3---2---2p0-5-5--3---2---2p0--|
F#|-0-0--------------0-0--------------1-1----1---1-----3-3----3---3------|
B |-0-0----0---0-----0-0----0---0----------------------------------------|

  |----------------------------------------------------------------------|

Guitar 2: x 4
C#|----------------------------------------------------------------------|
G#|----------------------------------------------------------------------|
E |----------------------------------------------------------------------|
B |-0~-----------------------------------8~--------------10~-------------|
F#|-0~-----------------------------------8~--------------10~-------------|
B |-0~-----------------------------------8~--------------10~-------------|

then
Guitar 1: x 2
C#|---------------------------------------------------------------------|
G#|-----------10--------------------------------------------------------|
E |------9h10---10-9-------------10----------12-------------------------|
B |------------------10----10-12-------10-12----------------------------|
F#|---------------------------------------------------------------------|
B |---------------------------------------------------------------------|
  pm                       *  *        *  *


breakdown
Guitar 1&2:   *=natural Harmonics
C#|-----------------------------------------------|
G#|---------------------------------------5*------|
E |---------------------------------------5*------|
B |-----------------------------------------------|
F#|----0----0-0-0--------0----0-0-0---------------|
B |----0----0-0-0--------0----0-0-0---------------|

Guitar 1:
C#|----------------------------------------------------------------------|
G#|-------10-6-8-10--------10-6-8-5--------6-3-5-6--------6-3-5-6--------|
E |----------------------------------------------------------------------|
B |----------------------------------------------------------------------|
F#|----------------------------------------------------------------------|
B |----------------------------------------------------------------------|

Guitar 2:
C#|---------------------------------------------------------------------|
G#|---------------------------------------------------------------------|
E |---------------------------------------------------------------------|
B |---------------------------------------------------------------------|
F#|----0----0-0-0--------0----0-0-0-----------7-7-7-7-----------5-5-5-5-|
B |----0----0-0-0--------0----0-0-0-----------7-7-7-7-----------5-5-5-5-|

Guitar 1:
C#|----------------------------------------------------------------------|
G#|-------10-6-8-10--------10-6-8-5--------6-3-5-6--------6-3-5-6--------|
E |----------------------------------------------------------------------|
B |----------------------------------------------------------------------|
F#|----------------------------------------------------------------------|
B |----------------------------------------------------------------------|

Guitar 2:
C#|---------------------------------------------------------------------|
G#|---------------------------------------------------------------------|
E |---------------------------------------------------------------------|
B |---------------------------------------------------------------------|
F#|----0----0-0-0--------0----0-0-0--------7----7-7-7--------5----5-5-5-|
B |----0----0-0-0--------0----0-0-0--------7----7-7-7--------5----5-5-5-|

Guitar 1:
C#|----------------------------------------------------------------------|
G#|-------10-6-8-10--------10-6-8-5--------6/8-5-3--------6-5-8-6*-------|
E |----------------------------------------------------------------------|
B |----------------------------------------------------------------------|
F#|----------------------------------------------------------------------|
B |----------------------------------------------------------------------|

Guitar 2:
C#|---------------------------------------------------------------------|
G#|---------------------------------------------------------------------|
E |---------------------------------------------------------------------|
B |---------------------------------------------------------------------|
F#|----0----0-0-0--------0----0-0-0--------7----7-7-7--------5----5-5-5-|
B |----0----0-0-0--------0----0-0-0--------7----7-7-7--------5----5-5-5-|

Guitar 1:
C#|----------------------------------------------------------------------|
G#|-------10-6-8-10--------10-6-8-5--------6/8-5-3--------6-5-8-6*-------|
E |----------------------------------------------------------------------|
B |----------------------------------------------------------------------|
F#|----------------------------------------------------------------------|
B |----------------------------------------------------------------------|

Guitar 2:
C#|---------------------------------------------------------------------|
G#|---------------------------------------------------------------------|
E |---------------------------------------------------------------------|
B |---------------------------------------------------------------------|
F#|----0----0-0-0--------0----0-0-0--------7----7-7-7--------5----5-5-5-|
B |----0----0-0-0--------0----0-0-0--------7----7-7-7--------5----5-5-5-|


Guitar 1&2:
C#|----------------------------------------------------------------------|
G#|----------------------------------------------------------------------|
E |---------7\-----------7\-----------7\---------------------------------|
B |-0-0-0---x----0-0-0---x----0-0-0---x----0-0-0-2-2-2-3-3-3-2-2-2-------|
F#|-0-0-0---5\---0-0-0---5\---0-0-0---5\---------------------------------|
B |-0-0-0--------0-0-0--------0-0-0--------------------------------------|

Guitar 1:
C#|---------------------------------------------------------------------|
G#|---------------------------------------------------------------------|
E |-------7\--------7\--------7\----------------------------------------|
B |---------------------------------------------------------------------|
F#|-0000--5\--0000--5\--0000--5\-0--pickscrape\\\-----------------------|
B |-0000------0000------0000-----0--------------------------------------|

Guitar 2: x2
C#|----------------------------------------------------------------------|
G#|----------------------------------------------------------------------|
E |----------------------------------------------------------------------|
B |-0~-----------------------------------8~--------------10~-------------|
F#|-0~-----------------------------------8~--------------10~-------------|
B |-0~-----------------------------------8~--------------10~-------------|

  Guitar 2: x2
C#|----------------------------------------------------------------------|
G#|----------------------------------------------------------------------|
E |----------------------------------------------------------------------|
B |-0------------------------------------8~--------------10~-------------|
F#|-0-0-0-0-0-0-0-0-0-0-0-0-0-0----------8~--------------10~-------------|
B |-0-0-0-0-0-0-0-0-0-0-0-0-0-0----------8~--------------10~-------------|

Guitar 1: x 2                                             end of 2nd time
C#|-----------------------------------------------------|----------------|
G#|-----------10----------------------------------------|----------------|
E |------9h10---10-9-------------10----------12---------|----------------|
B |------------------10----10-12-------10-12------------|-------0~-------|
F#|-----------------------------------------------------|-------0~-------|
B |-----------------------------------------------------|-------0~-------|
  pm                       *  *        *  *

soft part
Guitar 1:
C#|---------------------------------------------------------------------|\- |
G#|------5--5----5---5--------------------------------------------------|-- |
E |----5---5----5---5----2-5-3-2----------------------------------------|-- |x2
B |---------------------------------2-5-3-2-----------------------------|-- |
F#|---------------------------------------------------------------------|-- |
B |------------------------------------------------------------------------ |

Guitar 2:
C#|---------------------------------------------------------------------|\- |
G#|---------------------------------------------------------------------|-- |
E |---------------------------------------------------------------------|-- |x2
B |-------0---0-----0-----8---8-----8-----3----3-----3-----3----3----3--|-- |
F#|-----0---------0-----8---------8-----3----------3-----3---------3------- |
B |---0-----0---0-----8-----8---8-----3-----3----3-----3----3----3--------- |

  Burn! whraaaaaaaa!!!!!!

Guitar 1:x2
C#|---------------------------------------------------------------------|
G#|-------5----------5--------------------------------------------------|
E |-----5---5------5---5-----2-5-3-2------------------------------------|
B |----------7----------7--------------2-5-3-2--------------------------|
F#|--00--0------00--0------00-0------00-0-------------------------------|
B |--00--0------00--0------00-0------00-0-------------------------------|

Guitar 1:x2
C#|----------------------------------------------------------------------|
G#|---------5h6p5--------5h6p5-------------------------------------------|
E |-------5------------5---------2-5*-3-2--------------------------------|
B |---------------5-6-7----------------------2-5*-3-2--------------------|
F#|----------------------------------------------------------------------|
B |-----00-0-------------------00-0-------00-0---------------------------|

Guitar 1&2:x2
C#|---------------------------------------------------------------------|
G#|---------------------------------------------------------------------|
E |---------------------------------------------------------------------|
B |-000-0-0--000-0-0--000-0-3--000-0-5----------------------------------|
F#|-000-0-0--000-0-0--000-0-3--000-0-5----------------------------------|
B |-000-0-0--000-0-0--000-0-3--000-0-5----------------------------------|


Guitar 1&2:x4
C#|---------------------------------------------------------------------|
G#|---------------------------------------------------------------------|
E |-------7--------------7----------------------------------------------|
B |-------x--------------x-----------------------7p5p0-7p5p0------------|
F#|-000-0-5-00-000-000-0-5-00-000-000-0---00-000------------8p7p0-8p7p0-|
B |-000-0---00-000-000-0---00-000-000-0---00-000------------------------|

  end with
  |---------------------------------------------------------------------|
  |---------------------------------------------------------------------|
  |---------------------------------------------------------------------|
  |-----12\\\\----------------------------------------------------------|
  |-----12\\\\----------------------------------------------------------|
  |-----12\\\\----------------------------------------------------------|

this tap is almost 100%, not sure about the soft part and the 4th last riff with 
was a little tricky but i got it, if that riff dosnt sound 100% then change it up a bit, keep 
rate this tab guys.

            
            
Suggest correction
Creating personal tab
Creating personal tab
You can edit any tab online and save it as your Personal.

You can edit, replace or remove any tab part or add personal notes – all changes will be seen only by you.

Personal tabs can be accessed anytime from any device, even offline.
Learn more »
comments
print report bad tab
guest
You may want to rate the tab now too:
select rating
Wanna post a correction for this tab? Suggest correction