Oops, an error
Loading. Please wait.

Romance Is Dead tab

version 2
version 2
17,231 views 9 this week
6 commentsread comments
1 2 3 4 5
x 11
add to favorites
×
Save as Personal and add changes to this tab that will be seen only by you. Learn more ›
×
You can save this tab as Personal to edit and correct it or add notes. All changes will be seen only by you. Learn more »
launch autoscroll
font size
0
reset
how to read this tab
guitar tuner
backing track
0:00
0:00
edit
Autoscroll
slow
fast
+/-
esc
set tempo
stop
Author
Difficulty
One of my first tab


Tunning Drop B

|-----------------------------------------------|
|-----------------------------------------------|
|-----------------------------------------------|
|--3--3------3-------------3---3-------3---2----|
|---7---7-3-5--5-00-000000---7---7-3--5---5--3-0|
|----------------00-000000----------------------|

|-----------------------------------------------|
|------------------------------------------6-6-5|
|------------------------------------------7-7-7|
|--3--3------3-------------3---3-------3--------| Play x 3
|---7---7-3-5--5-00-000000---7---7-3--5--5------|
|----------------00-000000----------------------|

Next bit goes


|---------------------------||--------------------------|
|---------------------------||--------------------------|
|----------2---------5------||----------2------------5--|
|-0---------3--3-3-----3----||-0---------3s5-3-2-3-2--2-|
|---0-0-0----3--3--3--------||---0-0-0------------------|
|---0-0-0-------------------||---0-0-0------------------|
Repeat 4 times


|-----------------------------------------|
|-----------------------------------------|
|-----------------------------------------|
|-0-0-0-0-00000-888-0-0-0-0-0000----------| play x 4
|-0-0-0-0-00000-888-0-0-0-0-0000-555-3-3--|
|-0-0-0-0-00000-----0-0-0-0-0000----------|

Repeat


|-----------------------------------------------|
|-----------------------------------------------|
|-----------------------------------------------|
|--3--3------3-------------3---3-------3---2----|
|---7---7-3-5--5-00-000000---7---7-3--5---5--3-0|
|----------------00-000000----------------------|

|-----------------------------------------------|
|------------------------------------------6-6-5|
|------------------------------------------7-7-7|
|--3--3------3-------------3---3-------3--------| Play x 2
|---7---7-3-5--5-00-000000---7---7-3--5--5------|
|----------------00-000000----------------------|

At 1:39 play
|-------------------|
|-------------------|
|-------------------|
|-------------------|
|-3-2-1-0--3-2-1-0--|
|-3-2-1-0--3-2-1-0--|


|---------------------|
|---------------------|
|---------------------|
|-000--000--000--000--|
|-000--000--000--000--|  Play x 3
|-000--000--000--000--| 

At 1:47 play this
|----------------|
|----------------|
|----------------|
|--3------2--5---|
|---5-0-5---3--3-|
|-----0----------|


|-----------------------------------------------------------------|
|-----------------------------------------------------------------|
|--------------------------------------------10---------9----12---|
|-0-0-0--0--0---0-0-0--0--0---0-0-0--0--0------12----12---10----10|
|-0-0-0--0--0---0-0-0--0--0---0-0-0--0--0---------12--------------|
|-0-0-0--0--0---0-0-0--0--0---0-0-0--0--0-------------------------|

|----------------------------------------------------------|
|----------------------------------------------------------|
|----------------------------------------------------------|
|-0-0-0--0--0---0-0-0--0--0---0-0-0--0--0------------------|
|-0-0-0--0--0---0-0-0--0--0---0-0-0--0--0------------------|
|-0-0-0--0--0---0-0-0--0--0---0-0-0--0--0------------------|


At 2:02 he says Cry Me a fucking river bitch! and it goes into.
|----------------------------------------------------------------|
|----------------------------------------------------------------|
|-------------------------------------------10---------9----12---|
|-0-00000--0--0---00000-0--0--00000--0--0-----12----12---10----10|
|-0-00000--0--0---00000-0--0--00000--0--0--------12--------------|
|-0-00000--0--0---00000-0--0--00000--0--0------------------------|
x2

Then

|----------------------------||--------------------------|
|----------------------------||--------------------------|
|----------2---------5-------||----------2------------5--|
|-0---------3--3--3-----3----||-0---------3s5-3-2-3-2--2-|
|---0-0-0----3---3--3--------||---0-0-0------------------|
|---0-0-0--------------------||---0-0-0------------------|
5 times

Then Play

|---------------------------|
|---------------------------|
|-----------2-------------3-|
|-0-----------5-3-5-3-5--3--|
|---0-0-0-------------------|
|---0-0-0-------------------|

Play this at 2:50
|----------------------------------------|
|----------------------------------------|
|----------------------------------------|
|-0-0-0-0--3s5-3-2-3-2-0--5s7-5-3-5-3-2--|
|-0-0-0-0--------------------------------|
|-0-0-0-0--------------------------------|

Then you play
|--------------------------|
|--------------------------|
|--------------------------|
|--------------------------|
|-0--0--0--0--0--0--0--0---|
|-0--0--0--0--0--0--0--0---|

Then go into this

Tremmo pick this part 2:57
            x4                x4
|----------------------|--------------------|
|----------------------|--------------------|
|----------------------|--------------------|
|-12-12-12-10-10-9-9-9-|-10-10-10-7-7-8-8-8-|
|----------------------|--------------------|
|----------------------|--------------------|
Repeat 4 times


This part comes back up again, except play it a bit slower.
|--------------------------------------------|
|--------------------------------------------|
|--------------------------------------------|
|-0-0-0-0-00000-777-0-0-0-0-0000-------------|
|-0-0-0-0-00000-888-0-0-0-0-0000-555---------| Repeat twice
|-0-0-0-0-00000-----0-0-0-0-0000-------------|

                
For this part ALL notes are tapped

|-13p5-12p5-15p5-13p5-12p5-10p5-12p5-10p5-8p3-7p3-10p3-8p3-7p3-5p3-7p3-5p3--|
|---------------------------------------------------------------------------|
|---------------------------------------------------------------------------|
|---------------------------------------------------------------------------|
|---------------------------------------------------------------------------|
|---------------------------------------------------------------------------|

Repeat

|----------------------------------------------|
|----------------------------------------------|
|---12*----------------------------------------|
|-----10-9------9*-----------------------------|
|-7---------5----10-12--3--10-12-14-5-14-10-12-|
|-7---------5-----------3-----------5----------|

Then the tapping bit will come in again at 3:59

At 4:13 keep repeating this
|-------------------------------|
|-------------------------------|
|---12--------------------------|
|------10-9---9-9---------------|
|-7---------5----10-12----------|
|-7---------5-------------------|

Tapping starts back up at 

4:27

I tabbed it by ear as well as I could. It is the COMPLETE SONG.

            
            
Suggest correction
Creating personal tab
Creating personal tab
You can edit any tab online and save it as your Personal.

You can edit, replace or remove any tab part or add personal notes – all changes will be seen only by you.

Personal tabs can be accessed anytime from any device, even offline.
Learn more »
comments
print report bad tab
6 comments total. Showing first comments.
0 reply
wilsea05 230 Jan 05, 2007 04:33 AM

great tab mate. only two tabs for this song. the other one was rubbish, and it had 5 stars? hm. great song, great tab. nice one.

0 reply
jackavix 93 Jan 19, 2007 07:59 PM

its good but the solo is rong

0 reply
BMarkTHorizon89 105 Oct 11, 2007 10:07 AM

i read the first few riffs and its missing alot of detail...

listed to the song more carfully because i think some notes are off by one

thanks

guest
You may want to rate the tab now too:
select rating
Wanna post a correction for this tab? Suggest correction