Oops, an error
Loading. Please wait.

Set To Destroy Tab

version 2
version 2

Whole song

Interactive

609 views 3 this week
no commentswrite comment
1 2 3 4 5
please rate
add to favorites
launch autoscroll
font size
0
reset
how to read this tab
guitar tuner
Autoscroll
slow
fast
+/-
esc
set tempo
stop
Help us to improve Ultimate-Guitar.com Take our survey!
×
Author
Difficulty
Tuning
intermediate
A# F A# D# G C
PARKWAY DRIVE 

SET TO DESTROY

A#-F-A#-D#-G-C


TABBED BY andherembrace




----------------------------------|
----------------------------------|
----------------------------------|
-3--------------------------------|
-3--------------------------------|
-3--------------------------------|

------------------------------------------------------------|
------------------------------------------------------------|
------------------------------------------------------------|
------------------------------------------------------------|
---5-------8-------7-------3----------777---888---777---333-|
-0---0-0-0---0-0-0---0-0-0---0-0-0-333---555---777---333----|
 *   * * *   * * *   * * *   * *

-------------------------------------------------------|
-------------------------------------------------------|
-------------------------------------------------------|
---------------------------------------------------3-5-|
--5-------8-------7-------3-------5------7---------3-5-|
----0-0-0---0-0-0---0-0-0---0-0-0--88-----1010-----3-5-|
    * * *   * * *   * * *   * *


-----------------------------------------------------------|
-----------------------------------------------------------|
-----------------------------------------------------------|
-----------------------------------------------------------|
--5-------8-------7-------3----------777---888---777---333-|
----0-0-0---0-0-0---0-0-0---0-0-0-333---555---777---333----|
    * * *   * * *   * * *   * *

-------------------------------------------------------|
-------------------------------------------------------|
-------------------------------------------------------|
---------------------------------------------------3-5-|
--5-------8-------7-------3-------5------7---------3-5-|
----0-0-0---0-0-0---0-0-0---0-0-0--88-----1010-----3-5-|
    * * *   * * *   * * *   * *


--------------------------------------------------------|
--------------------------------------------------------|
--------------------------------------------------------|
-0--------------------------0-----P--------p------0000--|
-0--------------------------0------S--------s-----0000--|
-0--------------------------0--------\-------\----0000--|


-----------------------------------------------------------|
-----------------------------------------------------------|
-----------------------------------------------------------|
-----------------------------------------------------------|
--5-------8-------7-------3----------777---888---777---333-|
----0-0-0---0-0-0---0-0-0---0-0-0-333---555---777---333----|
    * * *   * * *   * * *   * *

-------------------------------------------------------|
-------------------------------------------------------|
-------------------------------------------------------|
---------------------------------------------------3-5-|
--5-------8-------7-------3-------5------7---------3-5-|
----0-0-0---0-0-0---0-0-0---0-0-0--88-----1010-----3-5-|
    * * *   * * *   * * *   * *


-----------------------------------------------------|
-----------------------------------------------------|
-----------------------------------------------------|
-0--------------------------0-----P--------p---------|
-0--------------------------0------S--------s--------|
-0--------------------------0--------\-------\-------|

 

-------------------------------------------------------------|
-------------------------------------------------------------|
-------------------------------------------------------------|
-0---0-0-0---0-0-0---0-0-0-0-0---0-0-0---0-0-0---0---0-0-0---|
-0---0-0-0---0-0-0---0-0-0-0-0---0-0-0---0-0-0---0---0-0-0---|
-0---0-0-0---0-0-0---0-0-0-0-0---0-0-0---0-0-0---0---0-0-0---|
     * * *   * * *   * * * * *   * * *   * * *       * * *

-------------------------------------------------------------|
-------------------------------------------------------------|
-------------------------------------------------------------|
-0---0-0-0---0-0-0---0-0-0-0-0---0-0-0---0-0-0---0---0-0-0---|
-0---0-0-0---0-0-0---0-0-0-0-0---0-0-0---0-0-0---0---0-0-0---|
-0---0-0-0---0-0-0---0-0-0-0-0---0-0-0---0-0-0---0---0-0-0---|
     * * *   * * *   * * * * *   * * *   * * *       * * *

-------------------------------------------------------------|
-------------------------------------------------------------|
-------------------------------------------------------------|
-0---0-0-0---0-0-0---0-0-0-0-0---0-0-0---0-0-0---0---0-0-0---|
-0---0-0-0---0-0-0---0-0-0-0-0---0-0-0---0-0-0---0---0-0-0---|
-0---0-0-0---0-0-0---0-0-0-0-0---0-0-0---0-0-0---0---0-0-0---|
     * * *   * * *   * * * * *   * * *   * * *       * * *

-------------------------------------------------------------|
-------------------------------------------------------------|
-------------------------------------------------------------|
-0---0-0-0---0-0-0---0-0-0-0-0---0-0-0---0-0-0---0---0-0-0---|
-0---0-0-0---0-0-0---0-0-0-0-0---0-0-0---0-0-0---0---0-0-0---|
-0---0-0-0---0-0-0---0-0-0-0-0---0-0-0---0-0-0---0---0-0-0---|
     * * *   * * *   * * * * *   * * *   * * *       * * *


-------------------------------------------------------------|
-------------------------------------------------------------|
-------------------------------------------------------------|
-1-0-0-0---------7-0-0-0---------1-0-0-0-----------7-0-0-0---|
-1-0-0-0---------7-0-0-0---------1-0-0-0-----------7-0-0-0---|
-1-0-0-0---------7-0-0-0---------1-0-0-0-----------7-0-0-0---|
   * *             * *             * *               * *

----------------------------------|
----------------------------------|
----------------------------------|
-3--------------------------------|
-3--------------------------------|
-3--------------------------------|

-------------------------------------|
-------------------------------------|
-------------------------------------|
--------------------------------0----|
---5-------8----------777---333-0----|
-0---0-0-0---0-0-0-777---333----0-|--|
 *   * * *   * * *  
Suggest correction
Give kudos to tab author, rate the tab!
1 2 3 4 5
comments
print report bad tab
guest
You may want to rate the tab now too:
select rating
Wanna post a correction for this tab? Suggest correction