Oops, an error
Loading. Please wait.

Sirens Song tab

version 3
version 3

Whole song

1,299 views 1 this week
no commentswrite comment
1 2 3 4 5
x 4
add to favorites
×
Save as Personal and add changes to this tab that will be seen only by you. Learn more ›
×
You can save this tab as Personal to edit and correct it or add notes. All changes will be seen only by you. Learn more »
launch autoscroll
font size
0
reset
how to read this tab
guitar tuner
backing track
0:00
0:00
edit
Autoscroll
slow
fast
+/-
esc
set tempo
stop
PARKWAY DRIVE

THE SIREN'S SONG

B-F#-B-E-G#-C#


TABBED BY andherembrace




1
-202015151515-----------------------------------------------------|
-------------151520201515-----------------------------------------|
-------------------------20201515202015151515------------19191515-|
---------------------------------------------151519191515---------|
------------------------------------------------------------------|
------------------------------------------------------------------|
2
----------------------------------------------------------------|
----------------------------------------------------------------|
----------------------------------------------------------------|
-0--------------------------------------------------------------|
-0--------------------------------------------------------------|
-0--------------------------------------------------------------|

1
-202015151515-----------------------------------------------------|
-------------151520201515-----------------------------------------|
-------------------------20201515202015151515------------19191515-|
---------------------------------------------151519191515---------|
------------------------------------------------------------------|
------------------------------------------------------------------|
2
----------------------------------------------------------------|
----------------------------------------------------------------|
----------------------------------------------------------------|
-0--------------------------------------------------------------|
-0--------------------------------------------------------------|
-0--------------------------------------------------------------|


1
-202015151515-----------------------------------------------------|
-------------151520201515-----------------------------------------|
-------------------------20201515202015151515------------19191515-|
---------------------------------------------151519191515---------|
------------------------------------------------------------------|
------------------------------------------------------------------|
2
----------------------------------------------------------------|
----------------------------------------------------------------|
----------------------------------------------------------------|
-0--------------------------------------------------------------|
-0--------------------------------------------------------------|
-0--------------------------------------------------------------|

1
-202015151515-----------------------------------------------------|
-------------151520201515-----------------------------------------|
-------------------------20201515202015151515------------19191515-|
---------------------------------------------151519191515---------|
------------------------------------------------------------------|
------------------------------------------------------------------|
2
----------------------------------------------------------------|
----------------------------------------------------------------|
----------------------------------------------------------------|
-0------------------------------------------------P-------------|
-0-------------------------------------------------S------------|
-0--------------------------------------------------\-----------|



0:09

1
-202015151515-----------------------------------------------------|
-------------151520201515-----------------------------------------|
-------------------------20201515202015151515------------19191515-|
---------------------------------------------151519191515---------|
------------------------------------------------------------------|
------------------------------------------------------------------|

HARMONY
-151510101010-----------------------------------------------------|
-------------101015151010-----------------------------------------|
-------------------------15151010151510101010------------14141010-|
---------------------------------------------101014141010---------|
------------------------------------------------------------------|
------------------------------------------------------------------|

RYTHM
------------------------------------------------------------|
------------------------------------------------------------|
------------------------------------------------------------|
------------------------------------------------------------|
-0----------------------------0-----------------------------|
-0-|--0-0-0-0-0-0-0-0-0-0-0-0-0---0-0-0-0-0-0-0-0-0-0-0-0---|
 *    * * * * * * * * * * * * *   * * * * * * * * * * * *

1
-202015151515-----------------------------------------------------|
-------------151520201515-----------------------------------------|
-------------------------20201515202015151515------------19191515-|
---------------------------------------------151519191515---------|
------------------------------------------------------------------|
------------------------------------------------------------------|

HARMONY
-151510101010-----------------------------------------------------|
-------------101015151010-----------------------------------------|
-------------------------15151010151510101010------------14141010-|
---------------------------------------------101014141010---------|
------------------------------------------------------------------|
------------------------------------------------------------------|

RYTHM
------------------------------------------------------------|
------------------------------------------------------------|
------------------------------------------------------------|
------------------------------------------------------------|
-0----------------------------0-----------------------------|
-0-|--0-0-0-0-0-0-0-0-0-0-0-0-0---0-0-0-0-0-0-0-0-0-0-0-0---|
 *    * * * * * * * * * * * * *   * * * * * * * * * * * *
1
-202015151515-----------------------------------------------------|
-------------151520201515-----------------------------------------|
-------------------------20201515202015151515------------19191515-|
---------------------------------------------151519191515---------|
------------------------------------------------------------------|
------------------------------------------------------------------|

HARMONY
-151510101010-----------------------------------------------------|
-------------101015151010-----------------------------------------|
-------------------------15151010151510101010------------14141010-|
---------------------------------------------101014141010---------|
------------------------------------------------------------------|
------------------------------------------------------------------|

RYTHM
------------------------------------------------------------|
------------------------------------------------------------|
------------------------------------------------------------|
------------------------------------------------------------|
-0----------------------------0-----------------------------|
-0-|--0-0-0-0-0-0-0-0-0-0-0-0-0---0-0-0-0-0-0-0-0-0-0-0-0---|
 *    * * * * * * * * * * * * *   * * * * * * * * * * * *

1
-202015151515-----------------------------------------------------|
-------------151520201515-----------------------------------------|
-------------------------20201515202015151515------------19191515-|
---------------------------------------------151519191515---------|
------------------------------------------------------------------|
------------------------------------------------------------------|

HARMONY
-151510101010-----------------------------------------------------|
-------------101015151010-----------------------------------------|
-------------------------15151010151510101010------------14141010-|
---------------------------------------------101014141010---------|
------------------------------------------------------------------|
------------------------------------------------------------------|

RYTHM
------------------------------------------------------------|
------------------------------------------------------------|
------------------------------------------------------------|
------------------------------------------------------------|
-0----------------------------0-----------------------------|
-0-|--0-0-0-0-0-0-0-0-0-0-0-0-0---0-0-0-0-0-0-0-0-0-0-0-0---|
 *    * * * * * * * * * * * * *   * * * * * * * * * * * *

1
-17------------------------------------------------------------|
---------------------------------------------------------------|
---------------------------------------------------------------|
---------------------------------------------------------------|
-------------------------------------------------0---0---0---0-|
-------------------------------------------------0-|-0-|-0-|-0-|

HARMONY
---------------------------------------------------------------|
-15------------------------------------------------------------|
---------------------------------------------------------------|
---------------------------------------------------------------|
---------------------------------------------------------------|
---------------------------------------------------------------|

RYTHM
---------------------------------------------------------------|
---------------------------------------------------------------|
---------------------------------------------------------------|
-0-------------------------------------------------------------|
-0-----------------------------------------------0---0---0---0-|
-0-----------------------------------------------0-|-0-|-0-|-0-|



0:20

L
------------------------------------------------------------------|
------------------------------------------------------------------|
------------------------------------------------------------------|
-------------------------------------------------5-------7--------|
-----5---7-8-----3---5-7-----3-5-----5---7-8-------8-7-5---10-8-7-|
-0-0---0-----0-0---0-----0-0-----0-0---0-----0-0------------------|
 * *   *     * *   *     * *     * *   *     * *
R
--------------------------------------------------------------------|
--------------------------------------------------------------------|
--------------------------------------------------------------------|
-------------------------------------------------8--------10--------|
-----5---7-8-----3---5-7-----3-5-----5---7-8------12-10-8---13-12-10|
-0-0---0-----0-0---0-----0-0-----0-0---0-----0-0--------------------|
 * *   *     * *   *     * *     * *   *     * *

L
------------------------------------------------------------------|
------------------------------------------------------------------|
------------------------------------------------------------------|
-------------------------------------------------5-------7--------|
-----5---7-8-----3---5-7-----3-5-----5---7-8-------8-7-5---10-8-7-|
-0-0---0-----0-0---0-----0-0-----0-0---0-----0-0------------------|
 * *   *     * *   *     * *     * *   *     * *
R
--------------------------------------------------------------------|
--------------------------------------------------------------------|
--------------------------------------------------------------------|
-------------------------------------------------8--------10--------|
-----5---7-8-----3---5-7-----3-5-----5---7-8------12-10-8---13-12-10|
-0-0---0-----0-0---0-----0-0-----0-0---0-----0-0--------------------|
 * *   *     * *   *     * *     * *   *     * *

L
------------------------------------------------------------------|
------------------------------------------------------------------|
------------------------------------------------------------------|
-------------------------------------------------5-------7--------|
-----5---7-8-----3---5-7-----3-5-----5---7-8-------8-7-5---10-8-7-|
-0-0---0-----0-0---0-----0-0-----0-0---0-----0-0------------------|
 * *   *     * *   *     * *     * *   *     * *
R
--------------------------------------------------------------------|
--------------------------------------------------------------------|
--------------------------------------------------------------------|
-------------------------------------------------8--------10--------|
-----5---7-8-----3---5-7-----3-5-----5---7-8------12-10-8---13-12-10|
-0-0---0-----0-0---0-----0-0-----0-0---0-----0-0--------------------|
 * *   *     * *   *     * *     * *   *     * *

L
------------------------------------------------------------------|
------------------------------------------------------------------|
------------------------------------------------------------------|
-------------------------------------------------5-------7--------|
-----5---7-8-----3---5-7-----3-5-----5---7-8-------8-7-5---10-8-7-|
-0-0---0-----0-0---0-----0-0-----0-0---0-----0-0------------------|
 * *   *     * *   *     * *     * *   *     * *
R
--------------------------------------------------------------------|
--------------------------------------------------------------------|
--------------------------------------------------------------------|
-------------------------------------------------8--------10--------|
-----5---7-8-----3---5-7-----3-5-----5---7-8------12-10-8---13-12-10|
-0-0---0-----0-0---0-----0-0-----0-0---0-----0-0--------------------|
 * *   *     * *   *     * *     * *   *     * *



0:39


B            R                  B            R   B               
----------------------------------------------------------------------|
----------------------------------------------------------------------|
-----------------------------------------------------------------_----|
------------------------------------------------------/\--------/ \---|
-8-5-----------------------------8-5--------------^--5858--^---710710-|
-----7-8-5-0-0-0-000-000-000-000-----7-8-5-0-0-0-5-8------7-10--------|
             * * *** *** *** ***             * *
B            L                   B
----------------------------------------------------------------------|
----------------------------------------------------------------------|
----------------------------------------------------------------------|
----------------------------------------------------------------------|
-8-5-----------------------------8-5--------------/\--5----/\---8-7---|
-----7-8-5-0-0-0-000-000-000-000-----7-8-5-0-----0578-----07810-------|
             * * *** *** *** ***             



----------------------------------------------------------------------|
----------------------------------------------------------------------|
-----------------------------------------------------------------_----|
------------------------------------------------------/\--------/ \---|
-8-5-----------------------------8-5--------------^--5858--^---710710-|
-----7-8-5-0-0-0-000-000-000-000-----7-8-5-0-0-0-5-8------7-10--------|
             * * *** *** *** ***             * *
----------------------------------------------------------------------|
----------------------------------------------------------------------|
----------------------------------------------------------------------|
----------------------------------------------------------------------|
-8-5-----------------------------8-5--------------/\--5----/\---8-7---|
-----7-8-5-0-0-0-000-000-000-000-----7-8-5-0-----0578-----07810-------|
             * * *** *** *** ***            


0:58

L
-----------------------------------------------------------------------|
-----------------------------------------------------------------------|
-----------------------------------------------------------------_-----|
------------------------------------------------------/\--------/ \----|
12-8----------------------------12-8--------------^--5858--^---710710--|
----1012-8-0-0-0-000-000-000-000----1012-8-0-0-0-5-8------7-10---------|
             * * *** *** *** ***             * *
R
-----------------------------------------------------------------------|
-----------------------------------------------------------------------|
------------------------------------------------------------------_----|
-------------------------------------------------------/\--------/ \---|
--8-5-----------------------------8-5--------------^--5858--^---710710-|
------7-8-5-0-0-0-000-000-000-000-----7-8-5-0-0-0-5-8------7-10--------|
              * * *** *** *** ***             * *

----------------------------------------------------------------------|
----------------------------------------------------------------------|
----------------------------------------------------------------------|
----------------------------------------------------------------------|
12-8----------------------------12-8---------------/\--5----/\---8-7--|
----1012-8-0-0-0-000-000-000-000----1012-8-0------0578-----07810------|
             * * *** *** *** ***   
----------------------------------------------------------------------|
----------------------------------------------------------------------|
----------------------------------------------------------------------|
----------------------------------------------------------------------|
--8-5-----------------------------8-5--------------/\--5----/\---8-7--|
------7-8-5-0-0-0-000-000-000-000-----7-8-5-0-----0578-----07810------|
              * * *** *** *** ***        


1:08

L
---------------------------------------------------------------|
---------------------------------------------------------------|
---------------------------------------------------------------|
---------------------------------------------------------------|
-8------------------------------10--------------------15-------|
-8-|----------------------------10-|------------------15\------|

R
---------------------------------------------------------------|
---------------------------------------------------------------|
---------------------------------------------------------------|
---___-----___-----___-----___-----____------____--------------|
--/   \---/   \---/   \---/   \---/    \----/    \----15-------|
-5-8-5-8-5-8-5-8-5-8-5-8-5-8-5-8-7-10-7-10-7-10-7-10--15\------|


----------------------------------------|
----------------------------------------|
----------------------------------------|
----------------------------------------|
0--0----0-0--0-0----0--0----0-0--0-0----|
0--0----0-0--0-0----0--0----0-0--0-0----|
*  *    * *  * *    *  *    * *  * *

------------------------------------------------------------------------|
------------------------------------------------------------------------|
------------------------------------------------------------------------|
--___-----___-----___-----___-----____------____------____------____----|
-/   \---/   \---/   \---/   \---/    \----/    \----/    \----/    \---|
5-8-5-8-5-8-5-8-5-8-5-8-5-8-5-8-8-12-8-12-8-12-8-12-7-10-7-10-7-10-7-10-|

------------------------------|
------------------------------|
------------------------------|
------------------------------|
0--0---0--0---0--0---0--0-----|
0--0---0--0---0--0---0--0-----|
*  *   *  *   *  *   *  *    

---------------------------------------------------------------------|
---------------------------------------------------------------------|
---------------------------------------------------------------------|
---___-----___-----___-----___-----____------____------___-----___---|
--/   \---/   \---/   \---/   \---/    \----/    \----/   \---/   \--|
-5-8-5-8-5-8-5-8-5-8-5-8-5-8-5-8-7-10-7-10-7-10-7-10-3-7-3-7-3-7-3-7-|

----------------------------------------|
----------------------------------------|
----------------------------------------|
----------------------------------------|
0--0----0-0--0-0----0--0----0-0--0-0----|
0--0----0-0--0-0----0--0----0-0--0-0----|
*  *    * *  * *    *  *    * *  * *

------------------------------------------------------------------------|
------------------------------------------------------------------------|
------------------------------------------------------------------------|
--___-----___-----___-----___-----____------____------____------____----|
-/   \---/   \---/   \---/   \---/    \----/    \----/    \----/    \---|
5-8-5-8-5-8-5-8-5-8-5-8-5-8-5-8-8-12-8-12-8-12-8-12-7-10-7-10-7-10-7-10-|

----------------------------------------------------|
----------------------------------------------------|
----------------------------------------------------|
----------------------------------------------------|
0--0---0--0--0--0---0-0---0--0---0--0---0--0---0--0-|
0--0---0--0--0--0---0-0-|-0--0---0--0---0--0---0--0-|
*  *   *  *  *  *   * *   *  *   *  *   *  *   *  *


1:38

L
------------------------------------------------------------------|
------------------------------------------------------------------|
------------------------------------------------------------------|
-------------------------------------------------5-------7--------|
-----5---7-8-----3---5-7-----3-5-----5---7-8-------8-7-5---10-8-7-|
-0-0---0-----0-0---0-----0-0-----0-0---0-----0-0------------------|
 * *   *     * *   *     * *     * *   *     * *
R
--------------------------------------------------------------------|
--------------------------------------------------------------------|
--------------------------------------------------------------------|
-------------------------------------------------8--------10--------|
-0-0---------0-0---------0-0-----0-0--------------12-10-8---13-12-10|
-0-0---------0-0---------0-0-----0-0--------------------------------|
 * *         * *         * *     * *        

L
------------------------------------------------------------------|
------------------------------------------------------------------|
------------------------------------------------------------------|
-------------------------------------------------5-------7--------|
-----5---7-8-----3---5-7-----3-5-----5---7-8-------8-7-5---10-8-7-|
-0-0---0-----0-0---0-----0-0-----0-0---0-----0-0------------------|
 * *   *     * *   *     * *     * *   *     * *
R
--------------------------------------------------------------------|
--------------------------------------------------------------------|
--------------------------------------------------------------------|
-------------------------------------------------8--------10--------|
-----5---7-8-----3---5-7-----3-5-----5---7-8------12-10-8---13-12-10|
-0-0---0-----0-0---0-----0-0-----0-0---0-----0-0--------------------|
 * *   *     * *   *     * *     * *   *     * *
B
------------------|
------------------|
------------------|
------------------|
-0---0---0---0----|
-0-|-0-|-0-|-0----|


1:48

L
------------------------------------------------------------------|
------------------------------------------------------------------|
------------------------------------------------------------------|
-------------------------------------------------5-------7--------|
-----5---7-8-----3---5-7-----3-5-----5---7-8-------8-7-5---10-8-7-|
-0-0---0-----0-0---0-----0-0-----0-0---0-----0-0------------------|
 * *   *     * *   *     * *     * *   *     * *

R
--------------------------------------------------------------------|
--------------------------------------------------------------------|
--------------------------------------------------------------------|
-------------------------------------------------8--------10--------|
-----8---1012----7---810-----7-8-----8---1012-----12-10-8---13-12-10|
-0-0---0-----0-0---0-----0-0-----0-0---0-----0-0--------------------|
 * *   *     * *   *     * *     * *   *     * *

L
------------------------------------------------------------------|
------------------------------------------------------------------|
------------------------------------------------------------------|
-------------------------------------------------5-------7--------|
-----5---7-8-----3---5-7-----3-5-----5---7-8-------8-7-5---10-8-7-|
-0-0---0-----0-0---0-----0-0-----0-0---0-----0-0------------------|
 * *   *     * *   *     * *     * *   *     * *

R
--------------------------------------------------------------------|
--------------------------------------------------------------------|
--------------------------------------------------------------------|
-------------------------------------------------8--------10--------|
-----8---1012----7---810-----7-8-----8---1012-----12-10-8---13-12-10|
-0-0---0-----0-0---0-----0-0-----0-0---0-----0-0--------------------|
 * *   *     * *   *     * *     * *   *     * *

1:58

L
-----------------------------------------------------------------|
-----------------------------------------------------------------|
-----------------------------------------------------------------|
-----------------------5------------------------7\5--------------|
-----5---5-------8\7---------7/8-----3---3-------------8-----7/8-|
-0-0---0-----0-0-----0---0-0-----0-0---0-----0-0-----0---0-0-----|
 * *   *     * *     *   * *     * *   *     * *     *   * * 

R
-----------------------------------------------------------------|
-----------------------------------------------------------------|
-----------------------------------------------------------------|
-----------------------5-------------------------3\2-------------|
-----5---5-------8\7---------7/8-----3---3-------------5----3/5--|
-0-0---0-----0-0-----0---0-0-----0-0---0-----0-0-----0---0-0-----|
 * *   *     * *     *   * *     * *   *     * *     *   * * 

L
-------------------------------------------------------------------------|
-------------------------------------------------------------------------|
-------------------------------------------------------------------------|
-----------------5/7---7/8---8/10----_---------_-------------------------|
-----5---5--------------------------/ \---12--/ \---8--/\---10--/\---8-7-|
-0-0---0-----0-0-----0-----0-------081012----081012---07810----07810-----|
 * *   *     * *     *     *       

R
-------------------------------------------------------------------------|
-------------------------------------------------------------------------|
-------------------------------------------------------------------------|
------------------------^------^-----_---------_-------------------------|
-----5---5-------7/8---8-10--10-12--/ \---12--/ \---8--/\---10--/\---8-7-|
-0-0---0-----0-0-----0-----0-------081012----081012---07810----07810-----|
 * *   *     * *     *     *        

L
-----------------------------------------------------------------|
-----------------------------------------------------------------|
-----------------------------------------------------------------|
-----------------------5------------------------7\5--------------|
-----5---5-------8\7---------7/8-----3---3-------------8-----7/8-|
-0-0---0-----0-0-----0---0-0-----0-0---0-----0-0-----0---0-0-----|
 * *   *     * *     *   * *     * *   *     * *     *   * * 

R
-----------------------------------------------------------------|
-----------------------------------------------------------------|
-----------------------------------------------------------------|
-----------------------5-------------------------3\2-------------|
-----5---5-------8\7---------7/8-----3---3-------------5----3/5--|
-0-0---0-----0-0-----0---0-0-----0-0---0-----0-0-----0---0-0-----|
 * *   *     * *     *   * *     * *   *     * *     *   * * 

L
-------------------------------------------------------------------------|
-------------------------------------------------------------------------|
-------------------------------------------------------------------------|
-----------------5/7---7/8---8/10----_---------_-------------------------|
-----5---5--------------------------/ \---12--/ \---8--/\---10--/\---8-7-|
-0-0---0-----0-0-----0-----0-------081012----081012---07810----07810-----|
 * *   *     * *     *     *       

R
-------------------------------------------------------------------------|
-------------------------------------------------------------------------|
-------------------------------------------------------------------------|
------------------------^------^-----_---------_-------------------------|
-----5---5-------7/8---8-10--10-12--/ \---12--/ \---8--/\---10--/\---8-7-|
-0-0---0-----0-0-----0-----0-------081012----081012---07810----07810-----|
 * *   *     * *     *     *        



2:17

--------------------------------------------------------------------|
--------------------------------------------------------------------|
--------------------------------------------------------------------|
-0-------------------1--0-------------------------------------------|
-0-------------------1--0---------------------------4-3-1---4-1-3-1-|
-0-------------------1--0---------------------------4-3-1---4-1-3-1-|
                                                    * *     * * * *


-------------------------------------------------------------------|
-------------------------------------------------------------------|
-------------------------------------------------------------------|
-------------------------------------------------------------------|
-0--0-0-------------0-0-------------0--0-0-------------0-0--0--1---|
-0--0-0--0-0-0-|----0-0--0-0-0-|----0--0-0--0-0-0-|----0-0--0--1---|
    * *    *        * *    *           * *    *        * * 

--------------------------------------------------------------------------|
--------------------------------------------------------------------------|
--------------------------------------------------------------------------|
--------------------------------------------------------------------------|
-0--0-0-------------0-0-------------0--0-0-------------4-3-1---4-1-3-1----|
-0--0-0--0-0-0-|----0-0--0-0-0-|----0--0-0--0-0-0-|----4-3-1---4-1-3-1-0-V|
    * *    *        * *    *           * *    *        * *     * * * *   

SLOWER
-------------------------------------------------------------------|
-------------------------------------------------------------------|
-------------------------------------------------------------------|
-------------------------------------------------------------------|
-0--0-0-------------0-0-------------0--0-0-------------0-0--0-PH---|
-0--0-0--0-0-0-|----0-0--0-0-0-|----0--0-0--0-0-0-|----0-0--0-3~~--|
    * *    *        * *    *           * *    *        * * 

--------------------------------------------------------------------------|
--------------------------------------------------------------------------|
--------------------------------------------------------------------------|
--------------------------------------------------------------------------|
-0--0-0-------------0-0-------------0--0-0-------------4-3-1---4-1-3-1----|
-0--0-0--0-0-0-|----0-0--0-0-0-|----0--0-0--0-0-0-|----4-3-1---4-1-3-1----|
    * *    *        * *    *           * *    *        * *     * * * *  


            
            
Suggest correction
Creating personal tab
Creating personal tab
You can edit any tab online and save it as your Personal.

You can edit, replace or remove any tab part or add personal notes – all changes will be seen only by you.

Personal tabs can be accessed anytime from any device, even offline.
Learn more »
comments
print report bad tab
guest
You may want to rate the tab now too:
select rating
Wanna post a correction for this tab? Suggest correction