Oops, an error
Loading. Please wait.

Sleepwalker Tab

version 1
version 1
15,248 views 6 this week
no commentswrite comment
1 2 3 4 5
accurate
x 3
add to favorites
launch autoscroll
font size
0
reset
how to read this tab
guitar tuner
Tab Pro tools
  • play this tab
  • loop segment
  • change instrument
  • show fretboard
  • metronome
×
Best way to learn
"Sleepwalker"
Autoscroll
slow
fast
+/-
esc
set tempo
stop
Contributor
Difficulty
Tuning
intermediate
A# F A# D# G C
-------------------------------------------------------------------------------
                             Sleepwalker - Parkway Drive
-------------------------------------------------------------------------------
Tabbed by: Jetfuel495
Email:

Tuning: Drop A#


This is just the intro, as in, what was available on the trailer. The rest might come later.


      E  E  E  S S E  E  E  S S    E  E  E  S S E  E  E  E   
C ||----------------------------|---------------------------|
G ||----------------------------|---------------------------|
D#||----------------------------|---------------------------|
A#||----------------------------|---------------------------|
F ||-----------0-3-5--------0-3-|--5--------0-3-7--3--7--8--|
A#||--0--0------------0---------|-----0---------------------|


  E  E  E  S S E  E  E  S S    E  E  E  S S E  E  E  E   
----------------------------|---------------------------|
----------------------------|---------------------------|
----------------------------|---------------------------|
----------------------------|---------------------------|
-----------0-3-5--------0-3-|--5--------0-3-7--3--7--8--|
--0--0------------0---------|-----0---------------------|


  E  E  E  S S E  E  E  S S    E  E  E  S S E  E  E  E   
----------------------------|---------------------------|
----------------------------|---------------------------|
----------------------------|---------------------------|
----------------------------|---------------------------|
-----------0-3-5--------0-3-|--5--------0-3-7--3--7--8--|
--0--0------------0---------|-----0---------------------|


  E  E  E  S S E  E  E  S S    E  E  E  S S E  E  E  E   
----------------------------|---------------------------|
----------------------------|---------------------------|
----------------------------|---------------------------|
----------------------------|---------------------------|
-----------0-3-5--------0-3-|--5--------0-3-7--3--7--8--|
--0--0------------0---------|-----0---------------------|


  PM PM PM PM PM PM PM PM PM  PM PM PM  
  S  S  E  S  S  E  S  S  E   S  S  E   
---------------------------------------|
---------------------------------------|
---------------------------------------|
---------------------------------------|
-----------------------------10-10-10--|
--0--0--0--0--0--0--0--0--0------------|


  PM PM PM PM PM PM PM PM PM  PM PM PM  
  S  S  E  S  S  E  S  S  E   S  S  E   
---------------------------------------|
---------------------------------------|
---------------------------------------|
---------------------------------------|
-----------------------------12-12-12--|
--0--0--0--0--0--0--0--0--0------------|


  PM PM PM PM PM PM PM PM PM PM PM PM  
  S  S  E  S  S  E  S  S  E  S  S  E   
--------------------------------------|
--------------------------------------|
--------------------------------------|
--------------------------------------|
-----------8--8--8--8--8--8--7--7--7--|
--0--0--0-----------------------------|


  PM PM PM PM PM PM PM PM PM PM PM PM  
  S  S  E  S  S  E  S  S  E  S  S  E   
--------------------------------------|
--------------------------------------|
--------------------------------------|
--------------------------------------|
--8--8--8--7--7--7--5--5--5--3--3--3--|
--------------------------------------|


  PM PM PM PM PM PM PM PM PM  PM PM PM  
  S  S  E  S  S  E  S  S  E   S  S  E   
---------------------------------------|
---------------------------------------|
---------------------------------------|
---------------------------------------|
-----------------------------10-10-10--|
--0--0--0--0--0--0--0--0--0------------|


  PM PM PM PM PM PM PM PM PM  PM PM PM  
  S  S  E  S  S  E  S  S  E   S  S  E   
---------------------------------------|
---------------------------------------|
---------------------------------------|
---------------------------------------|
-----------------------------12-12-12--|
--0--0--0--0--0--0--0--0--0------------|


       PM PM PM PM PM PM PM PM PM  
  Q    S  S  E  S  S  E  S  S  E   
----------------------------------|
----------------------------------|
----------------------------------|
----------------------------------|
-------8--8--8--8--8--8--7--7--7--|
----------------------------------|


  PM PM PM PM PM PM PM PM PM PM PM PM  
  S  S  E  S  S  E  S  S  E  S  S  E   
--------------------------------------|
--------------------------------------|
--------------------------------------|
--------------------------------------|
--8--8--8--7--7--7--5--5--5--3--3--3--|
--------------------------------------|


  PM PM PM PM PM PM PM PM PM  PM PM PM  
  S  S  E  S  S  E  S  S  E   S  S  E   
---------------------------------------|
---------------------------------------|
---------------------------------------|
---------------------------------------|
-----------------------------10-10-10--|
--0--0--0--0--0--0--0--0--0------------|


  PM PM PM PM PM PM PM PM PM  PM PM PM  
  S  S  E  S  S  E  S  S  E   S  S  E   
---------------------------------------|
---------------------------------------|
---------------------------------------|
---------------------------------------|
-----------------------------12-12-12--|
--0--0--0--0--0--0--0--0--0------------|


  PM PM PM PM PM PM PM PM PM PM PM PM  
  S  S  E  S  S  E  S  S  E  S  S  E   
--------------------------------------|
--------------------------------------|
--------------------------------------|
--------------------------------------|
-----------8--8--8--8--8--8--7--7--7--|
--0--0--0-----------------------------|


  PM PM PM PM PM PM PM PM PM PM PM PM  
  S  S  E  S  S  E  S  S  E  S  S  E   
--------------------------------------|
--------------------------------------|
--------------------------------------|
--------------------------------------|
--8--8--8--7--7--7--5--5--5--3--3--3--|
--------------------------------------|


  PM PM PM PM PM PM PM PM PM  PM PM PM  
  S  S  E  S  S  E  S  S  E   S  S  E   
---------------------------------------|
---------------------------------------|
---------------------------------------|
---------------------------------------|
-----------------------------10-10-10--|
--0--0--0--0--0--0--0--0--0------------|


  PM PM PM PM PM PM PM PM PM  PM PM PM  
  S  S  E  S  S  E  S  S  E   S  S  E   
---------------------------------------|
---------------------------------------|
---------------------------------------|
---------------------------------------|
-----------------------------12-12-12--|
--0--0--0--0--0--0--0--0--0------------|


       PM PM PM PM PM PM PM PM PM  
  Q    S  S  E  S  S  E  S  S  E   
----------------------------------|
----------------------------------|
----------------------------------|
----------------------------------|
-------8--8--8--8--8--8--7--7--7--|
----------------------------------|


  PM PM PM PM PM PM PM PM PM PM PM PM                               
  S  S  E  S  S  E  S  S  E  S  S  E     E  E  E  S S E  E  E  S S  
--------------------------------------|----------------------------|
--------------------------------------|----------------------------|
--------------------------------------|----------------------------|
--------------------------------------|----------------------------|
--8--8--8--7--7--7--5--5--5--3--3--3--|-----------0-3-5--------0-3-|
--------------------------------------|--0--0------------0---------|


  E  E  E  S S E  E  E  E     E  E  E  S S E  E  E  S S  
---------------------------|----------------------------|
---------------------------|----------------------------|
---------------------------|----------------------------|
---------------------------|----------------------------|
--5--------0-3-7--3--7--8--|-----------0-3-5--------0-3-|
-----0---------------------|--0--0------------0---------|


  E  E  E  S S E  E  E  E     E  E  E  S S E  E  E  S S  
---------------------------|----------------------------|
---------------------------|----------------------------|
---------------------------|----------------------------|
---------------------------|----------------------------|
--5--------0-3-7--3--7--8--|-----------0-3-5--------0-3-|
-----0---------------------|--0--0------------0---------|


  E  E  E  S S E  E  E  E     E  E  E  S S E  E  E  S S  
---------------------------|----------------------------|
---------------------------|----------------------------|
---------------------------|----------------------------|
---------------------------|----------------------------|
--5--------0-3-7--3--7--8--|-----------0-3-5--------0-3-|
-----0---------------------|--0--0------------0---------|


  E  E  E  S S E  E  E  E     Q     E  E  E  E  E  E   
---------------------------|--------------------------|
---------------------------|--------------------------|
---------------------------|--------------------------|
---------------------------|--7\----------------------|
--5--------0-3-7--3--7--8--|--5\----------------------|
-----0---------------------|--------0--0-----0--0-----|


  E  E  E  E  E  E  E  E     Q     E  E  E  E  E  E   
--------------------------|--------------------------|
--------------------------|--------------------------|
--------------------------|--------------------------|
--------------------------|--7\----------------------|
--------------------------|--5\----------------------|
--0--0-----0--0-----0--0--|--------0--0-----0--0-----|


  S S E  Q    S S E   Q      
---------------------------||
---------------------------||
---------------------------||
---------------------------||
--5-5-7--8----7-7-8--10----||
---------------------------||




Duration Legend
---------------
W - whole
H - half
Q - quarter
E - 8th
S - 16th
T - 32nd
X - 64th
. - note dotted
|-n-|  - n-tuplets


Tablature Legend
----------------
L - tied note
x - dead note
g - grace note
(n) - ghost note
> - accentuded note
NH - natural harmonic
AH - artificial harmonic
TH - tapped harmonic
SH - semi harmonic
PH - pitch harmonic
h - hammer on
p - pull off
b - bend
br - bendRelease
pb - preBend
pbr - preBendRelease
brb - bendReleaseBend
\n/ - tremolo bar dip
\n - tremolo bar dive
-/n - tremolo bar Release up
/n\ - tremolo bar inverted dip
/n - tremolo bar return
-\n - tremolo bar Release down
S - shift slide
s - legato slide
/ -  slide into from below or out of upwards
\ -  slide into from above or out of downwards
~ - vibrato
W - wide vibrato
tr - trill
TP - tremolo picking
T - tapping
S - slap
P - pop
< - fade in
^ - brush up
v - brush down
comments
We did not receive enough feedback on this tab! Please rate:
print report bad tab
1 2 3 4 5
I want to post or [tab]
guest
You may want to rate the tab now too:
select rating
Please do not post tabs as comments. Select "correction" instead!