Oops, an error
Loading. Please wait.

Sleepwalker Tab

version 3
version 3
73,189 views 36 this week
7 commentsread comments
1 2 3 4 5
x 14
add to favorites
launch autoscroll
font size
0
reset
how to read this tab
guitar tuner
Autoscroll
slow
fast
+/-
esc
set tempo
stop
Help us to improve Ultimate-Guitar.com Take our survey!
×
Author
Difficulty
Tuning
intermediate
A# F A# D# G C
-------------------------------------------------------------------------------
                             Sleepwalking - Parkway Drive
-------------------------------------------------------------------------------
Tabbed by:Sim_dog4.0
Email: sim_dog26@hotmail.com

Whole song with Solo.

Tuning:
A# (A# F A#D# G E)

   [Intro/Chorus:] (0:11) (After fade in)------------------------------------

There is 2 ways the intro can be played this simple way or the more fatter 
sounding one under it, which ever you prefer?

C |------------------------------------------|
G |------------------------------------------|
D#|------------------------------------------| x4 (Simple Way)
A#|---------------------------------2---2h3--|
F |--------0h3h5-----0h3h5-----0h3h---3------|
A#|--0-0---------0---------0-----------------|




C |---------------------------------------------|
G |---------------------------------------------|
D#|---------------------------------------------|   x 4 (Fatter Way)
A#|-0-0--0-10-12-0--0-10-12-0-------------------|
F |-0-0--0-10-12-0--0-10-12-0--------7----7-8---|
A#|-0-0--0-10-12-0--0-10-12-0---7-10---10-------|


   [Verse:] (0:23)----------------------------------------------------------


C |  |--------------------------------------------------------------| x 4 Every
G |  |--------------------------------------------------------------|    second
D#|  |--------------------------------------------------------------|   time it
A#|  |--------------------------------------------------------------| has a cut
F |  |-------888-10-------101010-12-------888-888-777-888-777-555-3-|
A#|  |-00000--------00000-----------00000---------------------------|


  [Break Down 1:](0:56) ----------------------------------------------------


C |  |-----------------------------------------------------------------------|
G |  |-----------------------------------------------------------------------|
D#|  |--------------------------------7/10-10--10/12-12----------------------|
A#|  |-12\-00-00-00-000---12\--00-00--x/x--x---x-/x--x-----------------------|
F |  |-12\-00-00-00-000---12\--00-00--5/8--8---8-/10-10----------------------|
A#|  |-12\-00-00-00-000---12\--00-00-----------------------------------------|

C |  |------------------------------------|
G |  |------------------------------------|
D#|  |------------------------------------| x 1
A#|  |------------------------------------|
F |  |-----88-1010-88-----88-1010-77------|
A#|  |-000------------000-----------------|

  |-------------------------------------|
  |-------------------------------------|
  |-7/10-10--10/12-12--12/14-14\7/10-10-|
  |-x/x--x---x-/x--x---x-/x--x-\x/x--x--| x 1
  |-5/8--8---8-/10-10--10/12-12\5/8--8--|
  |-------------------------------------|
                                                  ---|
  |------------------------------------|             |                      
  |------------------------------------|             |     
  |------------------------------------| x 1         | 
  |------------------------------------|             |
  |-----88-1010-77-----88-1010-88------|             |
  |-000------------000-----------------|             |   x 2
                                                     |
  |-------------------------------------|            |
  |-------------------------------------|            |
  |-7/10-10--10/12-12--12/14-14\7/10-10-|            |
  |-x/x--x---x-/x--x---x-/x--x-\x/x--x--| x 1        |
  |-5/8--8---8-/10-10--10/12-12\5/8--8--|            |
  |-------------------------------------|            |
                                                  ---|
  
C |  |------------------------------------|                                  
G |  |------------------------------------|                
D#|  |------------------------------------| x 1         
A#|  |------------------------------------|            
F |  |-----88-1010-77-----88-1010-88------|             
A#|  |-000------------000-----------------|


C |  |---------------------------|
G |  |---------------------------|
D#|  |---------------------------| x 1
A#|  |---------------------------|
F |  |-888-888-777-888-777-555-3-|
A#|  |---------------------------|


  [Break Down 2:] (1:43)----------------------------------------------------


C |  |-----------------------------|
G |  |-----------------------------|
D#|  |-10-0-0----------9--0-0------|
A#|  |-x--0-0----------x--0-0------| x 1 
F |  |-8--0-0----------7--0-0------|
A#|  |-----------------------------|

C |  |----------------------------|
G |  |----------------------------|
D#|  |-10-0-0-0-10-0-0-0--0-0-0---|
A#|  |-x--0-0-0-x--0-0-0--0-0-0---| x 5
F |  |-8--0-0-0-7--0-0-0--0-0-0---|
A#|  |----------------------------|


  [Solo:] -------------------------------------------------------------------

 Guitar 2 (2:50)

C |  |---------------------------|
G |  |---------------------------|
D#|  |---------------------------| x lots (can be played as octives)
A#|  |---------------------------|
F |  |-7-8-5--8-10-8-7-8-7-3-5---|
A#|  |---------------------------|

 Guitar 1 (3:04)

       (3:04)
C |  |----17----15----15-18----17------15-h17-p15~---------------------------|
G |  |-15----15----15-------15----15-15--------------------------------------|
D#|  |-----------------------------------------------------------------------|
A#|  |-----------------------------------------------------------------------|
F |  |-----------------------------------------------------------------------|
A#|  |-----------------------------------------------------------------------|
   (3:08)
  |-----------------------------------------------------------------------|
  |-18-17-18-17-15--18-17-18-17-------------------------------------------|
  |-----------------------------14----------------------------------------|
  |---------------------------------14-12-14-12-9-10-9-10-----------------|
  |-------------------------------------------------------12--------------|
  |-----------------------------------------------------------------------|
   (3:14)
  |---------------------------|
  |---------------------------|
  |-------------10-12^14------|
  |-12-10-12-10---------------|
  |---------------------------|
  |---------------------------|

     (This is the semi fast bit of the solo.)
      (3:18)
C |  |-------------------------------------13-h15-/17-15-\13-h15-------------|
G |  |------------------------------13-h15-----------------------------------|
D#|  |-------10-h12-/14--12-h14-h15------------------------------------------|
A#|  |-10-h12----------------------------------------------------------------|
F |  |-----------------------------------------------------------------------|
A#|  |-----------------------------------------------------------------------|

Finger tapping. Only on the 13th, 17th and 18th frets, index finger stays on 10th 
fret at all times.
 
      (3:21)
C |  |-17p10-13p10--18p10-13p10----| x 3       |-17p10-13p10--17p13----------|
G |  |-----------------------------|           |-----------------------------|
D#|  |-----------------------------|           |-----------------------------|
A#|  |-----------------------------| 4th time  |-----------------------------|
F |  |-----------------------------|   play    |-----------------------------|
A#|  |-----------------------------|           |-----------------------------|
  
      (3:25)
C |  |-17----17------------|
G |  |----15----15---------|
D#|  |-------------14------| x 2
A#|  |---------------------|
F |  |---------------------|
A#|  |---------------------|
 
     (3:28)
C |  |-15h17p15-13h15p13-12h13p12-10h12p10-5-------------------------------|
G |  |---------------------------------------------------------------------|
D#|  |---------------------------------------------------------------------|
A#|  |---------------------------------------------------------------------|
F |  |---------------------------------------------------------------------|
A#|  |---------------------------------------------------------------------|

  Song Order:

  Intro/Chorus
  Verse
  Intro/Chorus
  Break Down 1
  Verse
  Break Down 2
  Intro/Chorus
  Solo

************************************

| h  Hammer-on
| /  Slide up
| x  Dead note
| \  Slide down
| p  Pull-off
| ~  Vibrato

************************************
Suggest correction
comments
print report bad tab
7 comments total. Showing first comments.
+2 reply
Metal1991 10 May 21, 2010 04:00 AM

I prefer the fatter intro nice work :)

0 reply
PRS1 10 May 21, 2010 04:09 AM

This is not perfect but pretty good, like the fat intro

0 reply
Frank_The_Tank 10 May 21, 2010 04:39 AM

best tabbed bit is the the solo just wat i needed.

guest
You may want to rate the tab now too:
select rating
Wanna post a correction for this tab? Suggest correction