Oops, an error
Loading. Please wait.

Sleepwalker Tab

version 4
version 4

Intro

Solo

2,043 views 1 this week
no commentswrite comment
1 2 3 4 5
not so good
x 2
add to favorites
launch autoscroll
font size
0
reset
how to read this tab
guitar tuner
Tab Pro tools
  • play this tab
  • loop segment
  • change instrument
  • show fretboard
  • metronome
Autoscroll
slow
fast
+/-
esc
set tempo
stop
Contributor
Difficulty
Tuning
intermediate
A# F A# D# G C
Band: Parkway Drive
Song: Sleepwalker
Album: Deep Blue

Tuning: Drop A# [A#,F,A#,D#,G,C]

Haha! Beat ya's all to it... except those covers on YouTube.
I don't deny that there may be some mistakes and there is parts missing
but it's pretty damn close, I think.


Intro/Main Riff x4
0:11 - 0:22

C |--------------------------------|
G |--------------------------------|
D#|--------------------------------|
A#|--------------------------------|
F |--------------------------------|
A#|-00-0012p0-0012p0-0012p10-14h15-|


Verse Riff 1 x2
0:22 - 0:44

C |-----------------------------------------------------------------------|
G |-----------------------------------------------------------------------|
D#|-----------------------------------------------------------------------|
A#|-----------------------------------------------------------------------|
F |-------------101010-------------121212-----888-888-777-888-777-555-333-|
A#|-000-000-000--------000-000-000--------000-----------------------------|
PM  ... ... ... . . .  ... ... ... . . .  ... ... ... ... ... ... ... ...

continued; slight variation

C |-----------------------------------------------------------------------|
G |-----------------------------------------------------------------------|
D#|-----------------------------------------------------------------------|
A#|-----------------------------------------------------------------------|
F |-------------101010-------------121212-----888-888-777-888-777-555-333-|
A#|-000-000-000--------000-000-000----------------------------------------|
PM  ... ... ... . . .  ... ... ... . . .      ... ... ... ... ... ... ...

GUITAR TWO

C |--------------------------------------------------------------------|
G |--------------------------------------------------------------------|
D#|--------------------------------------------------------------------|
A#|-------------888-------------101010-----777-777-555-777-555-333-222-|
F |--------------------------------------------------------------------|
A#|-000-000-000-----000-000-000--------000-----------------------------|
PM  ... ... ... ... ... ... ... . . .  ... ... ... ... ... ... ... ...

C |--------------------------------------------------------------------|
G |--------------------------------------------------------------------|
D#|--------------------------------------------------------------------|
A#|-------------888-------------101010-----777-777-555-777-555-333-222-|
F |--------------------------------------------------------------------|
A#|-000-000-000-----000-000-000----------------------------------------|
PM  ... ... ... ... ... ... ... . . .      ... ... ... ... ... ... ...


Intro/Main Riff x4
0:45 - 0:57

C |--------------------------------|
G |--------------------------------|
D#|--------------------------------|
A#|--------------------------------|
F |--------------------------------|
A#|-00-0012p0-0012p0-0012p10-14h15-|


Verse Riff 2
0:57 - 1:01

C |-----------------------------------------------|
G |-----------------------------------------------|
D#|-----------------------------------------------|
A#|---------------------------------------------5-|
F |-12\\-00-00-00-00-00-12\\-00-00-0h5h7h8-5h7h8--|
A#|-12\\-00-00-00-00-00-12\\-00-00----------------|
PM       .. .. .. .. ..      .. ..


Verse Riff 3 x3
1:01 - 1:15

C |---------------------------------------------------------------------|
G |---------------------------------------------------------------------|
D#|---------------------------------------------------------------------|
A#|----------------------------------------------------5------7---------|
F |-------------101010-------------121212-0h5h7h8-5h7h8--5h7h8--5h7h8p7-|
A#|-000-000-000--------000-000-000--------------------------------------|
PM  ... ... ... . . .  ... ... ... . . .


Post-Verse Riff 3
1:15 - 1:18

C |-----------------------------------------------------------------------|
G |-----------------------------------------------------------------------|
D#|-----------------------------------------------------------------------|
A#|-----------------------------------------------------------------------|
F |-------------101010-------------121212-----888-888-777-888-777-555-333-|
A#|-000-000-000--------000-000-000----------------------------------------|
PM  ... ... ... . . .  ... ... ... . . .      ... ... ... ... ... ... ...


Verse Riff 1 x2
1:18 - 1:43

GUITAR ONE

C |-----------------------------------------------------------------------|
G |-----------------------------------------------------------------------|
D#|-----------------------------------------------------------------------|
A#|-----------------------------------------------------------------------|
F |-------------101010-------------121212-----888-888-777-888-777-555-333-|
A#|-000-000-000--------000-000-000--------000-----------------------------|
PM  ... ... ... . . .  ... ... ... . . .  ... ... ... ... ... ... ... ...

continued; slight variation

C |-----------------------------------------------------------------------|
G |-----------------------------------------------------------------------|
D#|-----------------------------------------------------------------------|
A#|-----------------------------------------------------------------------|
F |-------------101010-------------121212-----888-888-777-888-777-555-333-|
A#|-000-000-000--------000-000-000----------------------------------------|
PM  ... ... ... . . .  ... ... ... . . .      ... ... ... ... ... ... ...

GUITAR TWO

C |--------------------------------------------------------------------|
G |--------------------------------------------------------------------|
D#|--------------------------------------------------------------------|
A#|-------------888-------------101010-----777-777-555-777-555-333-222-|
F |--------------------------------------------------------------------|
A#|-000-000-000-----000-000-000--------000-----------------------------|
PM  ... ... ... ... ... ... ... . . .  ... ... ... ... ... ... ... ...

C |--------------------------------------------------------------------|
G |--------------------------------------------------------------------|
D#|--------------------------------------------------------------------|
A#|-------------888-------------101010-----777-777-555-777-555-333-222-|
F |--------------------------------------------------------------------|
A#|-000-000-000-----000-000-000----------------------------------------|
PM  ... ... ... ... ... ... ... . . .      ... ... ... ... ... ... ...


Breakdown
Part A
1:43 - 1:49

GUITAR ONE

C |--------------------------------|
G |--------------------------------|
D#|--------------------------------|
A#|-7~-------------5~--------------|
F |-8~-00~~~~~~~~~-7~-0-0~~~~~~~~~-|
A#|----00~~~~~~~~~----0-0~~~~~~~~~-|
PM     ..             . .

GUITAR TWO

C |--------------------------------|
G |--------------------------------|
D#|--------------------------------|
A#|-7~-----------------------------|
F |-8~-00~~~~~~~~~~~~~~~~~~~~~~~~~-|
A#|----00~~~~~~~~~~~~~~~~~~~~~~~~~-|
PM     .



Part B
1:49 - 1:54

BOTH GUITARS

C |---------------------------|
G |---------------------------|
D#|---------------------------|
A#|-7~------5~----------------|
F |-8~-00-0-7~-00-0--00-0-----|
A#|----00-0----00-0--00-0-----|
PM     .. .    .. .  .. .

Part C x2
1:55 - 2:16

BOTH GUITARS

C |------------------------------------------------------|
G |------------------------------------------------------|
D#|------------------------------------------------------|
A#|-7~------5~------------------7~------5~---------------|
F |-8~-00-0-7~-00-0--00-0--00-0-8~-00-0-7~-00-0--00-0----|
A#|----00-0----00-0--00-0--00-0----00-0----00-0--00-0----|
PM     .. .    .. .  .. .  .. .    .. .    .. .  .. .


Post Breakdown
2:16 - 2:27

C |-------------------------------------------------------------------------|
G |-------------------------------------------------------------------------|
D#|-------------------------------------------------------------------------|
A#|-0~~~~~~~~~~~~~~~~~~~~---------------------------------------------------|
F |-0~~~~~~~~~~~~~~~~~~~~---------------------------------------------------|
A#|-0~~~~~~~~~~~~~~~~~~~~-00-0012p0-0012p0-0012p10-14h15-00-0012p0-00-------|


Intro/Main Riff x8
2:28 - 2:48

C |--------------------------------|
G |--------------------------------|
D#|--------------------------------|
A#|--------------------------------|
F |--------------------------------|
A#|-00-0012p0-0012p0-0012p10-14h15-|

GUITAR TWO - Comes in on the 5th repeat

C |--------------------------------|
G |--------------------------------|
D#|--------------------------------|
A#|--------------------------------|
F |--------------------------------|
A#|-00-0015p0-0015p0-0015p12-17h19-|


Outro 2:48 - 3:03

GUITAR ONE

C |------------------------------------------------|
G |------------------------------------------------|
D#|------------------------------------------------|
A#|-12~~~~-10~~~~-8~~~~~~~~-8~~~~-10~~~~-0~~~~~~~~-|
F |-12~~~~-10~~~~-8~~~~~~~~-8~~~~-10~~~~-0~~~~~~~~-|
A#|-12~~~~-10~~~~-8~~~~~~~~-8~~~~-10~~~~-0~~~~~~~~-|

GUITAR TWO - Haven't worked it out


Solo 3:03 - 3:30

GUITAR ONE

C |------------------------------------------------|
G |------------------------------------------------|
D#|------------------------------------------------|
A#|-12~~~~-10~~~~-8~~~~~~~~-8~~~~-10~~~~-0~~~~~~~~-|
F |-12~~~~-10~~~~-8~~~~~~~~-8~~~~-10~~~~-0~~~~~~~~-|
A#|-12~~~~-10~~~~-8~~~~~~~~-8~~~~-10~~~~-0~~~~~~~~-|

GUITAR TWO

C |----17-17----15-15----18-------15-17-15vvv-|
G |-15-------15-------15----15-15-------------|
D#|-------------------------------------------|
A#|-------------------------------------------|
F |-------------------------------------------|
A#|-------------------------------------------|

C |-12h13p12-13-12-----13-12-13----------|
G |----------------13~----------13-------|
D#|--------------------------------14v~~-|
A#|--------------------------------------|
F |--------------------------------------|
A#|--------------------------------------|

Positive this next bit's wrong.

C |--------------------------------------------|
G |--------------------------------------------|
D#|-/14-12-14-12------------------------12b~~~-|
A#|--------------14~~-12-14-12-14-10-12--------|
F |--------------------------------------------|
A#|--------------------------------------------|

C |---------------------------------17b~~17p13h15~~~-|
G |-------------------------13h15h17-----------------|
D#|-----------------12h14h15-------------------------|
A#|---------12h14h15---------------------------------|
F |-12h13h15-----------------------------------------|
A#|--------------------------------------------------|

C |-15h18p15[x8]-13h17p13[x8]-13~-17-13-17-13----17-13-17-13-----|
G |--------------------------------------------------------------|
D#|-------------------------------------------14-------------14~-|
A#|--------------------------------------------------------------|
F |--------------------------------------------------------------|
A#|--------------------------------------------------------------|

C |-13h17p13-12h15p12-10h13p10-8h12p8-12b~~~~-|
G |-------------------------------------------|
D#|-------------------------------------------|
A#|-------------------------------------------|
F |-------------------------------------------|
A#|-------------------------------------------|


Finish
3:30 - 4:03

GUITAR ONE - Repeat until fade out

C |------------------------------------------------|
G |------------------------------------------------|
D#|------------------------------------------------|
A#|-12~~~~-10~~~~-8~~~~~~~~-8~~~~-10~~~~-0~~~~~~~~-|
F |-12~~~~-10~~~~-8~~~~~~~~-8~~~~-10~~~~-0~~~~~~~~-|
A#|-12~~~~-10~~~~-8~~~~~~~~-8~~~~-10~~~~-0~~~~~~~~-|

GUITAR TWO - Not worked out
comments
We did not receive enough feedback on this tab! Please rate:
print report bad tab
1 2 3 4 5
I want to post or [tab]
guest
You may want to rate the tab now too:
select rating
Please do not post tabs as comments. Select "correction" instead!