Oops, an error
Loading. Please wait.

Smoke Em If Ya Got Em Bass Tab

version 1
version 1

Whole song

Interactive

13,118 views 9 this week
4 commentsread comments
1 2 3 4 5
excellent!
x 4
add to favorites
launch autoscroll
font size
0
reset
guitar tuner
Tab Pro tools
  • play this tab
  • loop segment
  • change instrument
  • show fretboard
  • metronome
×
Best way to learn
"Smoke Em If Ya Got Em"
Autoscroll
slow
fast
+/-
esc
set tempo
stop
Contributor
----------------------------------------------------------------------
                SMOKE EM IF YA GOT EM - Parkway Drive
----------------------------------------------------------------------

Tabbed By: Samuel Mobbs
Email: bogan_bassist@hotmail.com

x 2

E |----------------|----------------|----------------|----------------|
B |----------------|----------------|----------------|----------------|
F#|----------------|----------------|----------------|----------------|
B |2-2-2-2-2-2-2-2-|2-2-2-2-2-2-2-2-|0-0-0-0-0-0-0-0-|0-0-0-0-0-0-0-0-|

X 4

E |----------------|----------------|----------------|----------------|
B |----------------|----------------|----------------|----------------|
F#|----------------|----------------|----------------|----------------|
B |2---2---2---2---|2---2---2---2---|0---0---0---0000|0---00000---0000|

X 1

E |----------------|----------------|
B |----------------|----------------|
F#|----------------|----------------|
B |0~--------------|(0)-------------|

X 4

E |----------------|----------------|----------------|----------------|
B |----------------|----------------|----------------|----------------|
F#|----8-7-5-------|---10-7-8-------|----8-7-5-----3-|--5---078--035--|
B |0-0-------0-0-0-|--0-------0-0-0-|--0-------0-0---|0---0-----------|

X 4

E |----------------|----------------|----------------|----------------|
B |----------------|----------------|----------------|----------------|
F#|----------------|----------------|----------------|----------------|
B |000-000-000-0000|0-0-0-0---------|000-000-000-0000|0-0-0-0---------|

X 4

E |----------------|----------------|----------------|----------------|
B |----------------|----------------|----------------|----------------|
F#|----8-7-5-------|---10-7-8-------|----8-7-5-----3-|--5---078--035--|
B |0-0-------0-0-0-|--0-------0-0-0-|--0-------0-0---|0---0-----------|

X 2

E |----------------|----------------|----------------|----------------|
B |----------------|----------------|----------------|----------------|
F#|----7-5-8---8-7-|10--10-9-12-5-7-|----5-7-8---7-8-|----------------|
B |0-0-------------|----------------|0-0-------------|----------------|

Rest 4 measures

X 2

E |----------------|----------------|----------------|----------------|
B |----------------|----------------|----------------|----------------|
F#|----------------|----------------|----------------|----------------|
B |0-----0---0-0---|--0---0---0-0---|0-----0---0-0---|--0---0---0-0---|

X 1

E |----------------|----------------|----------------|----------------|
B |----------------|----------------|----------------|----------------|
F#|----------------|----------------|----------------|----------------|
B |5---5-55~-------|3---3-33~-------|5---5-55~-------|3---3-33~-------|

E |----------------|----------------|----------------|----------------|
B |----------------|----------------|----------------|----------------|
F#|----------------|----------------|----------------|----------------|
B |55555555-5555555|33333333-3333333|55555555-5555555|3333333-33333333|

E |----------------|----------------|----------------|----------------|
B |----------------|----------------|----------------|----------------|
F#|----------------|----------------|----------------|----------------|
B |----------------|----------------|5~------5~------|3~------3~------|

E |----------------|----------------|----------------|----------------|
B |----------------|----------------|----------------|----------------|
F#|----------------|----------------|----------------|----------------|
B |5555555-5555555-|3333333-3333333-|5555555-5555555-|3333333-3333----|

E |----------------|----------------|----------------|----------------|
B |----------------|----------------|----------------|----------------|
F#|----------------|----------------|----------------|----------------|
B |5555555-5555555-|3333333-3333333-|5555555-5555555-|3333333-3333333-|

E |--------------------------------|--------------------------------|
B |--------------------------------|--------------------------------|
F#|--------------------------------|--------------------------------|
B |5-5-5---55555---5-5-5---55555---|3-3-3---33333---3-3-3---33333---|

E |--------------------------------|--------------------------------|
B |--------------------------------|--------------------------------|
F#|--------------------------------|--------------------------------|
B |5-5-5---55555---5-5-5---55555---|3-3-3---33333-------------------|

E |--------------------|--------------------|--------------------|------------------|
B |--------------------|--------------------|--------------------|------------------|
F#|-----6---------6----|-----6---------6----|-----6---------6----|-----6------------|
B |1000--000-1000--0013|1000--000-1000--0013|1000--000-1000--0013|1000--000-11114433|

X 2

E |--------------------------------|--------------------------------|
B |--------------------------------|--------------------------------|
F#|--------------------------------|--------------------------------|
B |00000---00000---00000---00000---|00000---00000---1111111144443333|


E |----------------|
B |----------------|
F#|----------------|
B |0---0-----------|

Questions, comments, corrections? Email me at bogan_bassist@hotmail.com

| /  slide up
| \  slide down
| h  hammer-on
| p  pull-off
| ~  hold note
| +  harmonic
| x  mute note
| .  staccato note
| b  bend note
======================================================================
comments
print report bad tab
4 comments total. Showing first comments.
+2 reply
MIKE V92 wrote on January 23 2008, 07:15 am

at the start of this song i was listening pretty hard a to the bass and its not just 2222222222222 000000000000000 its
222222222222 00000500000003

0 reply
DeeBee wrote on March 12 2008, 12:10 pm

Just wondering if i have slow fingers, or this is with a pick

0 reply
lil-bass-man wrote on April 21 2008, 10:12 pm

Its with a pick dude,but if your like me and dont like to use a pick, jst practice your finger speed and you'l be able to do it, i can do it. its hard but its possible

I want to post or [tab]
guest
You may want to rate the tab now too:
select rating
Please do not post tabs as comments. Select "correction" instead!