Oops, an error
Loading. Please wait.

The River Tab

version 1
version 1

Whole song

Interactive

83,097 views 237 this week
9 commentsread comments
1 2 3 4 5
x 27
add to favorites
launch autoscroll
font size
0
reset
how to read this tab
guitar tuner
Autoscroll
slow
fast
+/-
esc
set tempo
stop
Help us to improve Ultimate-Guitar.com Take our survey!
×
B-F#-B-E-G#-C#

e|-10-----------8--10--------------10-----------8--10-----------|
B|-10-----------8--10--------------10-----------8--10-----------|
G|-10-----------9--10--------------10-----------9--10-----------|
D|--8----------10--12---------------8----------10--12-----------|
A|--------------------------------------------------------------|
E|--------------------------------------------------------------|

e|-10-----------8--10--------------10---------------------------|
B|-10-----------8--10--------------10---------------------------|
G|-10-----------9--10--------------10---------------------------|
D|--8----------10--12---------------8---------------------------|
A|--------------------------------------------------------------|
E|--------------------------------------------------------------|


[0:28]

   ^                                     
e|-6-5----------5------------^------------___---------|
B|-----6----6-----6---6-----6-5----------/   \--------|
G|-------7-- -------7----7------7-5--7--7/9\7/9--9----|
D|----------8------------5-----------7----------10----|
A|----------------------------------------------------|
E|----------------------------------------------------|

   ^                                     
e|-6-5----------5------------^--------------------|
B|-----6----6-----6---6-----6-5----------10-------|
G|-------7--x-------7----7------7-5--7---------9--|
D|----------8------------5-----------7--------10--|
A|------------------------------------------------|
E|------------------------------------------------|


[0:43]

(Gtr 1)

   ^                                     
e|-6-5----------5------------^-------------___--------|
B|-----6---6------6---6-----6-5-----------/   \-------|
G|-------7-X--------7---7-------7-5--7---7/9\7/9---9--|
D|---------8------------5------------7------------10--|
A|----------------------------------------------------|
E|----------------------------------------------------|

(Gtr 2)

e|---------------------------------------------------------------|
B|---------------------------------------------------------------|
G|---------------------------------------------------------------|
D|---------------------------------------------------------------|
A|--------------8---------------5-------------0---0-0-0-0--3-----|
E|--------------8---------------5-------------0---0-0-0-0--3-----|
                                                  * * * * 

(Gtr 1)

    ^                                     
e|-6-5----------5------------^-------------___--------|
B|-----6---6------6---6-----6-5-----------/   \-------|
G|-------7-X--------7---7-------7-5--7---7/9\7/9---9--|
D|---------8------------5------------7------------10--|
A|----------------------------------------------------|
E|----------------------------------------------------|

(Gtr 2)

e|----------------------------------------------------------|
B|----------------------------------------------------------|
G|----------------------------------------------------------|
D|----------------------------------------------------------|
A|---------8---------------5-------------0---0-0-0-0--3-----|
E|---------8---------------5-------------0---0-0-0-0--3-----|
                                             * * * * 

[0:58]

e|---------------------------------------------------------------|
B|---------------------------------------------------------------|
G|---------------------------------------------------------------|
D|----------------------------------------------p----------------|
A|-0---------------------------------------------s-\-------------|
E|-0-----------------------------------------------\-------------|


[1:13]

e|-------------------------------------------------------------------------------------------------|
B|-------------------------------------------------------------------------------------------------|
G|-------------------------------------------------------------------------------------------------|
D|-------------------------------------------------------------------------------------------------|
A|---------5-----5-----5-8-------------5-----3-------------5-----5-----3-5-------------5-----3-----|
E|-8-8-8-8---8-8---8-8-----0-0-5-0-0-5---0-0---0-0-0-0-0-0---0-0---0-0-----0-0-3-0-0-3---0-0---0-0-|
   * * * *  * *   * *     * *   * *    * *  * * * * * *  * *  * *     * *   * *    * *  * *

e|-------------------------------------------------------------------------------------------------|
B|-------------------------------------------------------------------------------------------------|
G|-------------------------------------------------------------------------------------------------|
D|-------------------------------------------------------------------------------------------------|
A|---------5-----5-----5-8-------------5-----3-------------5-----5-----3-5-------------5-----3-----|
E|-8-8-8-8---8-8---8-8-----0-0-5-0-0-5---0-0---0-0-0-0-0-0---0-0---0-0-----0-0-3-0-0-3---0-0---0-0-|
   * * * *   * *   * *     * *   * *     * *   * * * * * *   * *   * *     * *   * *     * *   * *


[1:28]

(Lead Guitar) 

e|-------------------------------------------------------------------------------------------------|
B|-------------------------------------------------------------------------------------------------|
G|-------------------------------------------------------------------------------------------------|
D|-------------------------------------------------------------------------------------------------|
A|---------5-----5-----5-8-------------5-----3-------------5-----5-----3-5-------------5-----3-----|
E|-8-8-8-8---8-8---8-8-----0-0-5-0-0-5---0-0---0-0-0-0-0-0---0-0---0-0-----0-0-3-0-0-3---0-0---0-0-|
   * * * *   * *   * *     * *   * *     * *   * * * * * *   * *   * *     * *   * *     * *   * *

(Rhythm)

e|------------------------------------------------------|
B|------------------------------------------------------|
G|------------------------------------------------------|
D|------------------------------------------------------|
A|------------8----8----------8-12-------------12-----8-|
E|12-12-12-12---12---12-12-12------0-0-8-0-0-8----0-0---|
   *  *  *  *    *    *  *  *      * *   * *      * *   

e|--------------------------------------------------------|
B|--------------------------------------------------------|
G|--------------------------------------------------------|
D|--------------------------------------------------------|
A|----------8---8---7---8-----------8-----7---------------|
E|0-0-0-0-0---0---0---0---0-0-0-0-7---0-0---7---0-0---0-0-|
  * * * * *   *   *   *   * * * *     * *       * *   * *

(Lead Guitar) 

e|-----------------------------------------------------------------------------------------|
B|-----------------------------------------------------------------------------------------|
G|-----------------------------------------------------------------------------------------|
D|-----------------------------------------------------------------------------------------|
A|---------5-----5-----5-8-------------5-----3---------5-----5-----3---5-------------------|
E|-8-8-8-8---8-8---8-8-----0-0-5-0-0-5---0-0---0-0-0-0---0-0---0-0---0---0-----0-0-3-0-0-3-|
   * * * *   * *   * *     * *   * *     * *   * * * *   * *   * *   *   *     * *   * *    

(Rhythm)

e|---------------------------------------------------------------------------------------------------|
B|---------------------------------------------------------------------------------------------------|
G|---------------------------------------------------------------------------------------------------|
D|---------------------------------------------------------------------------------------------------|
A|------------8-------8-------8-12------------12---8----------8---------8-----7-----8----------------|
E|12-12-12-12---12-12---12-12------0-0--8-0-0----8---0-0--0-0---0-0-0-0---0-0---0-0---0-0--7--0-0-7--|
  * * * *  *    *  *    *  *       * *    * *    *   * *  * *   * * * *   * *   * *   * *     * * 


[1:43]

(Gtr 1)
    ^                                     
e|-6-5----------5------------^-------------___--------|
B|-----6---6------6---6-----6-5-----------/   \-------|
G|-------7-X--------7---7-------7-5--7---7/9\7/9---9--|
D|---------8------------5------------7------------10--|
A|----------------------------------------------------|
E|----------------------------------------------------|

(Gtr 2)

e|----------------------------------------------------------|
B|----------------------------------------------------------|
G|----------------------------------------------------------|
D|----------------------------------------------------------|
A|---------8---------------5-------------0---0-0-0-0--3-----|
E|---------8---------------5-------------0---0-0-0-0--3-----|
                                             * * * * 
(Gtr 1)
    ^                                     
e|-6-5----------5------------^-------------___--------|
B|-----6---6------6---6-----6-5-----------/   \-------|
G|-------7-X--------7---7-------7-5--7---7/9\7/9---9--|
D|---------8------------5------------7------------10--|
A|----------------------------------------------------|
E|----------------------------------------------------|

(Gtr 2)

e|----------------------------------------------------------|
B|----------------------------------------------------------|
G|----------------------------------------------------------|
D|----------------------------------------------------------|
A|---------8---------------5-------------0---0-0-0-0--3-----|
E|---------8---------------5-------------0---0-0-0-0--3-----|
                                             * * * * 

[1:57]

(Gtr 1)

e|-------8-----5--------------8------5---------|
B|--6------5-----5-------6------5------5-------|
G|----9------7-------------9------7-------7----|
D|---------------------------------------------|
A|---------------------------------------------|
E|---------------------------------------------|

(Gtr 2)

e|---------------------------------------------|
B|---------------------------------------------|
G|---------------------------------------------|
D|-10-------------------12---------------------|
A|--8-------------------10---------------------|
E|--8-------------------10---------------------|


(Gtr 1)

e|-------8------5----------------8------5------|
B|--6-------------5---------6------5------5----|
G|----9----9-7-------7--------9------7---------|
D|---------------------------------------------|
A|---------------------------------------------|
E|---------------------------------------------|

(Gtr 2)

e|---------------------------------------------|
B|---------------------------------------------|
G|---------------------------------------------|
D|-0------------------------12-----------------|
A|-0------------------------10-----------------|
E|-0------------------------10-----------------|


e|---------------------------------------------------|
B|---------------------------------------------------|
G|---------------------------------------------------|
D|-0-------------------------------------------------|
A|-0-------------------------------------------------|
E|-0-------------------------------------------------|


[2:19]

(Lead Guitar)

e|----------------------------------------------------___________----|
B|---------------------------------------------------/           \---|
G|--------------------------------------------------5-7-5-7-5-7-5-7--|
D|--------------------------------------------------X-X-X-X-X-X-X-X--|
A|-0-0-0-0-0-0-0-0-8-8-8-8-8-8-8-8-5-5-5-5-5-5-5-5--3/5\3/5\3/5\3/5--|
E|-0-0-0-0-0-0-0-0-8-8-8-8-8-8-8-8-5-5-5-5-5-5-5-5-------------------|
 * * * * * * * * * * * * * * * * * * * * * * * * 

(Rhythm)

e|---------------------------------------------------______________---|
B|--------------------------------------------------/              \--|
G|-------------------------------------------------9-10-9-10-9-10-9-10|
D|-------------------------------------------------X--X-X--X-X--X-X--X|
A|-0-0-0-0-0-0-0-0-8-8-8-8-8-8-8-8-5-5-5-5-5-5-5-5-7/-8\7/-8\7/-8\7-/8|
E|-0-0-0-0-0-0-0-0-8-8-8-8-8-8-8-8-5-5-5-5-5-5-5-5--------------------|


[2:26]

e|--------------------------------------------------------------------------------------------------|
B|--------------------------------------------------------------------------------------------------|
G|--------------------------------------------------------------------------------------------------|
D|--------------------------------------------------------------------------------------------------|
A|---------5-----5-----5-8-------------5-----3--------------5-----5-----3-5-------------5-----3-----|
E|-8-8-8-8---8-8---8-8-----0-0-5-0-0-5---0-0---0-0--0-0-0-0---0-0---0-0-----0-0-3-0-0-3---0-0---0-0-|
   * * * *   * *   * *     * *   * *     * *   * *  * * * *   * *   * *     * *   * *     * *   * *

e|--------------------------------------------------------------------------------------------------|
B|--------------------------------------------------------------------------------------------------|
G|--------------------------------------------------------------------------------------------------|
D|--------------------------------------------------------------------------------------------------|
A|---------5-----5-----5-8-------------5-----3--------------5-----5-----3-5-------------5-----3-----|
E|-8-8-8-8---8-8---8-8-----0-0-5-0-0-5---0-0---0-0--0-0-0-0---0-0---0-0-----0-0-3-0-0-3---0-0---0-0-|
   * * * *   * *   * *     * *   * *     * *   * *  * * * *   * *   * *     * *   * *     * *   * *



[2:41]

(Lead Guitar)

e|--------------------------------__-----------------_____________------|
B|-------------------------------/  \---------------/             \-----|
G|---------7----7-------7-------7-10-9-------5-----5-7-5-7-5-7-5-7-5----|
D|---------X----X-------X-------X--X-X-------X-----X-X-X-X-X-X-X-X-X----|
A|---------5----5~~-----5-------5/-8\7-------3-----3/5\3/5\3/5\3/5\3~~--|
E|-0-0-0-0---0-0---0-0-----0-0----------0-0----0-0----------------------|
   * * * *   * *   * *   * *            * *    * *

(Rhythm)

e|---------------------------------------------_________________-----------|
B|--------------------------------------------/                 \----------|
G|--------10----10------10-----10-14-12------9-----9-10-9-10-9-10-9-10-9---|
D|---------X-----X-------X------X-X---X------X-----x--x-x--x-x--x-x--x-x---|
A|---------8-----8~~-----8------8/12\10------7-----7/-8\7/-8\7/-8\7/-8\7~~-|
E|-0-0-0-0---0-0----0-0-----0-0----------0-0----0-0------------------------|
   * * * *   * *    * *     * *          * *    * *

(Lead Guitar)
 
e|--------------------------------__-----------------_____________------|
B|-------------------------------/  \---------------/             \-----|
G|---------7----7-------7-------7-10-9-------5-----5-7-5-7-5-7-5-7-5----|
D|---------X----X-------X-------X--X-X-------X-----X-X-X-X-X-X-X-X-X----|
A|---------5----5~~-----5-------5/-8\7-------3-----3/5\3/5\3/5\3/5\3~~--|
E|-0-0-0-0---0-0---0-0-----0-0----------0-0----0-0----------------------|
   * * * *   * *   * *   * *            * *    * *
(Rhythm)

e|---------------------------------------------_________________-----|
B|--------------------------------------------/                 \----|
G|---------10-----10------10------10-14--12------9-----9-10-9-10-9-10-9-10-9---|
D|---------X------X-------X-------X--X---X-------X-----x--x-x--x-x--x-x--x-x---|
A|---------8------8~~-----8-------8-/12\-10------7-----7/-8\7/-8\7/-8\7/-8\7~~-|
E|-0-0-0-0---0-0------0-0---0-0--------------0-0---0-0-------------------------|
   * * * *   * *      * *   * *              * *   * *


[2:56]

(Lead Guitar) 

e|-10---------------8--10--------------10-----------8--10-----------|
B|-10---------------8--10--------------10-----------8--10-----------|
G|-10---------------9--10--------------10-----------9--10-----------|
D|--8--------------10--12---------------8----------10--12-----------|
A|------------------------------------------------------------------|
E|------------------------------------------------------------------|

(Rhythm)     
                                                     ______________________ 
e|-15-13-12--------------------------/15-13-12------/                      \--|
B|---------15~~--------------------------------15~-13-15-13-15-13-15-13-15-13-|
G|-----------------14-12------------------------------------------------------|
D|----------------------------15\14-------------------------------------------|
A|----------------------------------------------------------------------------|
E|----------------------------------------------------------------------------|
               

e|----------13-13-------------|
B|-15----------16----13~~~~---|
G|----------------------------|
D|----------------------------|
A|----------------------------|
E|----------------------------|


[3:11]

(Lead Guitar) 

e|-10--------------------8--10-----------------|
B|-10--------------------8--10-----------------|
G|-10--------------------9--10-----------------|
D|--8-------------------10--12-----------------|
A|---------------------------------------------|
E|---------------------------------------------|

(Rhythm)

e|-------8------5----------------8------5------|
B|--6-------------5---------6------5------5----|
G|----9----9-7-------7--------9------7---------|
D|---------------------------------------------|
A|---------------------------------------------|
E|---------------------------------------------|

(Lead Guitar) 

e|-10------------------------------8-----5-----|
B|-10-------------------------6------------5---|
G|-10---------------------------9----9-7-------|
D|--8------------------------------------------|
A|---------------------------------------------|
E|---------------------------------------------|

(Rhythm)

e|-------8------5------------------------------|
B|--6-------------5----------------------------|
G|----9----9-7---------------------------------|
D|---------------------------------------------|
A|---------------------------------------------|
E|---------------------------------------------|

(Lead Guitar) 

e|-------8------5--------|
B|--6-------------5------|
G|----9----9-7-------7---|
D|-----------------------|
A|-----------------------|
E|-----------------------|

(Rhythm)

e|-----------------------|
B|--6--------------------|
G|----9-7-9---------7----|
D|-----------------------|
A|-----------------------|
E|-----------------------|

(Lead Guitar)
 
e|-------8------5--------|
B|--6-------------5------|
G|----9----9-7-------7---|
D|-----------------------|
A|-----------------------|
E|-----------------------|

(Rhythm)

e|-----------------------|
B|--6--------------------|
G|----9-7-9---------7----|
D|-----------------------|
A|-----------------------|
E|-----------------------|

(Lead Guitar)

e|-------8------5--------|
B|--6-------------5------|
G|----9----9-7-------7---|
D|-----------------------|
A|-----------------------|
E|-----------------------|

(Rhythm)

e|-----------------------|
B|--6--------------------|
G|----9-7-9---------7----|
D|-----------------------|
A|-----------------------|
E|-----------------------|

(Lead Guitar) 

e|-------8------5--------|
B|--6-------------5------|
G|----9----9-7-------7---|
D|-----------------------|
A|-----------------------|
E|-----------------------|

(Rhythm)

e|-----------------------|
B|--6--------------------|
G|----9-7-9---------7----|
D|-----------------------|
A|-----------------------|
E|-----------------------|


[3:40]

e|------------------------------------------------------------------------|
B|------------------------------------------------------------------------|
G|------------------------------------------------------------------------|
D|------------------------------------------------------------------------|
A|-0-0--0--0--0-0----0-0-0-0--0-0----0-0--0--0--0-0----0-0--0--0--0---)(--|
E|-0-0--0--0--0-0----0-0-0-0--0-0----0-0--0--0--0-0----0-0--0--0--0-10----|
   * *  *  *  * *    * * * *  * *    * *  *  *  * *    * *  *  *  *

e|------------------------------------------------------------------------|
B|------------------------------------------------------------------------|
G|------------------------------------------------------------------------|
D|-0-0--0--0--0-0----0-0--0-0--0-0----0-0--0-0--0-0----0-0--0--0--0-------|
A|-0-0--0--0--0-0----0-0--0-0--0-0----0-0--0-0--0-0-------------------)(--|
E|-0-0--0--0--0-0----0-0--0-0--0-0----0-0--0-0--0-0----0-0--0--0--0-14----|
   * *  *  *  * *    * *  * *  * *    * *  * *  * *    * *  *  *  *


[3:55]

(Lead Guitar) 

e|-8---------------8----------------8--------------8-------------|
B|----6--5---5--6-----6--5----5--6----6--5---5--6----6--5----5-6-|
G|---------7----------------7--------------7---------------7-----|
D|---------------------------------------------------------------|
A|---------------------------------------------------------------|
E|---------------------------------------------------------------|

(Rhythm)

e|--------------------------------------------------------------------------------------------------------|
B|--------------------------------------------------------------------------------------------------------|
G|--------------------------------------------------------------------------------------------------------|
D|--------------------------------------------------------------------------------------------------------|
A|------------------------------------------------------------------------------------------------------)(|
E|8-8--8--8-8--8-8--8--8-8--10-10--10--10-10--10-10--10--10-10--0-0--0--0-0--0-0--0--0-0--0-0--0--0-0-10--|
  * *  *  * *  * *  *  * *  *  *   *   *  *   *  *   *   *  *   * *  *  * *  * *  *  * *  * *  *  * *

[4:02]

(Lead Guitar) 

e|-8---------------8----------------8---------------|
B|----6--5---5--6-----6--5----5--6----6--5---5--6---|
G|---------7----------------7--------------7--------|
D|--------------------------------------------------|
A|--------------------------------------------------|
E|--------------------------------------------------|

e|-8----------------10----------------12-------------------|
B|---10----------10----10----------10----10---------10-----|
G|------12-10-12----------12-10-12----------12-10-12-------|
D|---------------------------------------------------------|
A|---------------------------------------------------------|
E|---------------------------------------------------------|

(Rhythm)

e|------------------------------------------------------------------------------------------------|
B|------------------------------------------------------------------------------------------------|
G|------------------------------------------------------------------------------------------------|
D|------------------------------------------------------------------------------------------------|
A|------------------------------------------------------------------------------------------------|
E|8-8--8--8-8--8-8--8--8-8--10-10--10--10-10--10-10--10--10-10--12-12--12--12-12--12-12--12--12-12|
  * *  *  * *  * *  *  * *  *  *   *   *  *   *  *   *   *  *   *  *   *   *  *   *  *   *   *  * 


[4:08]

(Gtr 1)
   ^                                     
e|-6-5----------5------------^-------------___--------|
B|-----6---6------6---6-----6-5-----------/   \-------|
G|-------7-X--------7---7-------7-5--7---7/9\7/9---9--|
D|---------8------------5------------7------------10--|
A|----------------------------------------------------|
E|----------------------------------------------------|

(Gtr 2)

e|--------------------------------------------------------|
B|--------------------------------------------------------|
G|--------------------------------------------------------|
D|--------------------------------------------------------|
A|---------8---------------5-------------0---0-0-0-0--3---|
E|---------8---------------5-------------0---0-0-0-0--3---|
                                           * * * * 

(Gtr 1)
   ^                                     
e|-6-5----------5------------^-------------___--------|
B|-----6---6------6---6-----6-5-----------/   \-------|
G|-------7-X--------7---7-------7-5--7---7/9\7/9---9--|
D|---------8------------5------------7------------10--|
A|----------------------------------------------------|
E|----------------------------------------------------|

(Gtr 2)

e|---------------------------------------------------------------|
B|---------------------------------------------------------------|
G|---------------------------------------------------------------|
D|---------------------------------------------------------------|
A|--------------8---------------5-------------0---0-0-0-0--3-----|
E|--------------8---------------5-------------0---0-0-0-0--3-----|
                                                * * * * 

[4:23]

e|----------------------------------------------------|
B|----------------------------------------------------|
G|10-9-7-5------10--9-7-5--10-9-7-5-7---7-9-7-9-5-----|
D|-X-X-X-X-3----X-X-X-X-5---X-X-X-X-X---X-X-X-X-X-----|
A|-8\7-5\3-1----8\7-5\3-3---8\7-5\3-5---5/7\5/7-3-----|
E|----------------------------------------------------|

e|----------------------------------------------------|
B|----------------------------------------------------|
G|10-9-7-5-----10-9-7-5----10-9-7-5-7---7-9-7-9-5-----|
D|-X-X-X-X-3----X-X-X-X-5---X-X-X-X-X---X-X-X-X-X-----|
A|-8\7-5\3-1----8\7-5\3-3---8\7-5\3-5---5/7\5/7-3-----|
E|----------------------------------------------------|


[4:38]

(W/WAH)

(Gtr 1)

e|---------------------------------------------------------------------------------------|
B|-----------------------------^---^----^----^----^----^----^----^---^----^---^----^--)-(|
G|--------------------------10-0-9-0-10-0-12-0-14-0-12-0-10-0-9-0-12-0-10-0-9-0-10-0-7---|
D|-8------7------5-----3-----------------------------------------------------------------|
A|---------------------------------------------------------------------------------------|
E|---------------------------------------------------------------------------------------|

(Gtr 2)

e|---------------------------------------------------|
B|---------------------------------------------------|
G|---------------------------------------------------|
D|---------------------------------------------------|
A|--8---------------5-------------0---0-0-0-0--3-----|
E|--8---------------5-------------0---0-0-0-0--3-----|
                                      * * * * 

[4:46]

(Gtr 1)

e|---------------------------------------------------|
B|---------------------------------------------------|
G|-----------9-10-9----------------9-12-9------------|
D|--12-10-12--------12-10-12-10-12--------12-10------|
A|---------------------------------------------------|
E|---------------------------------------------------|

CONT.                            )
e|----____----------____---------10------------------|
B|---)----^--------)----^--------13------------------|
G|-12------10----13------10--------------------------|
D|-----------12------------12------------------------|
A|---------------------------------------------------|
E|---------------------------------------------------|

(Gtr 2)

e|---------------------------------------------------|
B|---------------------------------------------------|
G|---------------------------------------------------|
D|---------------------------------------------------|
A|--8---------------5-------------0---0-0-0-0--3-----|
E|--8---------------5-------------0---0-0-0-0--3-----|
                                      * * * * 

[4:53]

(Gtr 1)   )             )           )            )
e|-------10------------12----------13-----------15----|
B|-------13------------15----------16-----------18----|
G|----------------------------------------------------|
D|----------------------------------------------------|
A|----------------------------------------------------|
E|----------------------------------------------------|

(Gtr 2)

e|----------------------------------------------------|
B|----------------------------------------------------|
G|10-9-7-5-----10-9-7-5----10-9-7-5-7---7-9-7-9-5-----|
D|-X-X-X-X-3----X-X-X-X-5---X-X-X-X-X---X-X-X-X-X-----|
A|-8\7-5\3-1----8\7-5\3-3---8\7-5\3-5---5/7\5/7-3-----|
E|----------------------------------------------------|

(Gtr 1)   )                 )                    )
e|-------17------17-17-----15-----15-15---------12--------|
B|-------20----------------18-------------------15--------|
G|--------------------------------------------------------|
D|--------------------------------------------------------|
A|--------------------------------------------------------|
E|--------------------------------------------------------|

(Gtr 2)

e|-----------------------------------------------------|
B|-----------------------------------------------------|
G|10-9-7-5-----10-9-7-5----10-9-7-5-7--10-9-10-9-------|
D|-X-X-X-X-3----X-X-X-X-5---X-X-X-X-X---X-X--X-X-------|
A|-8\7-5\3-1----8\7-5\3-3---8\7-5\3-5---8\7--8\7--0----|
E|-----------------------------------------------0-----|

************************************

| x  Dead note
| p  Pull-off
| /  Slide up
| \  Slide down
| ~  Vibrato
| s  slide
| *  pal mute
       
************************************
Suggest correction
comments
print report bad tab
9 comments total. Showing first comments.
0 reply
andherembrace 5,631 Oct 27, 2012 06:51 PM

the distortion melody should be played the same as the 1st clean intro,(with the double notes)

-1 reply
Black Hazard 10 Oct 28, 2012 08:07 AM

Good job, but why not use Guitar Pro?

0 reply
andherembrace 5,631 Oct 29, 2012 08:50 AM

proof this tab is accurate

https://www.facebook.com/photo.php?v=523857034292298&set=vb.100000040195827&type=3&theater

guest
You may want to rate the tab now too:
select rating
Wanna post a correction for this tab? Suggest correction