Oops, an error
Loading. Please wait.

Wild Eyes solo tab

version 2
version 2

Solo

Whole song

Interactive

919 views 3 this week
6 commentsread comments
1 2 3 4 5
1 last vote to show rating
add to favorites
×
Save as Personal and add changes to this tab that will be seen only by you. Learn more ›
×
You can save this tab as Personal to edit and correct it or add notes. All changes will be seen only by you. Learn more »
launch autoscroll
font size
0
reset
how to read this tab
guitar tuner
edit
Autoscroll
slow
fast
+/-
esc
set tempo
stop
Hi all ive decided to tab this out because ive notice no one has and on covers ive seen 
no one really plays it.

For me this is the best part of the song and the reason i wanted to learn it so here
goes hope it helps.

Songs in drop B

Interlude

Rhythm guitar
|------------------------------------------------------|
|------------------------------------------------------|
|------------------------------------------------------|
|------------------------------------------------------|
|--5777735----5777753----5777735-----------------------|
|------------------------------------------------------|


Lead/Solo

|-------------------2h3p2-2h3p2-------------------------|
|--5-5-3-3-55-3-5-3------3------------------------------|
|-------------------------------------------------------|
|-------------------------------------------------------|
|-------------------------------------------------------|
|-------------------------------------------------------|

|-----------------------7-7-5-5------5b6r5------------|
|--355353----5---3--------------7--78-----------------|
|--------2-----------2--------------------------------|
|-----------------------------------------------------|
|-----------------------------------------------------|
|-----------------------------------------------------|

|-----------------------------------------------------------------|
|--355353----5---3------8p5-58p5-58p5-58p5-510p7-710p7-710b12r10--|
|--------2-----------2-----7----7----7----7-----9-----9-----------|
|-----------------------------------------------------------------|
|-----------------------------------------------------------------|
|-----------------------------------------------------------------|

And thats it easy peasy! just join in with the other guitar and finish this epic song :)

rate! and all comments welcome :)

Cheers for checking it out

            
            
Suggest correction
Creating personal tab
Creating personal tab
You can edit any tab online and save it as your Personal.

You can edit, replace or remove any tab part or add personal notes – all changes will be seen only by you.

Personal tabs can be accessed anytime from any device, even offline.
Learn more »
Give kudos to tab author, rate the tab!
1 2 3 4 5
comments
print report bad tab
6 comments total. Showing first comments.
0 reply
LeonPWD 18 Sep 20, 2013 08:39 AM

I am sorry but you tabbed this completely wrong. It is honestly not even close to being correct. The reason most people do not play it in their guitar covers is because Matt Hyde, the guy who mixed ATLAS, mixed the solo way too low in the song. Most people cannot even hear it because you actually have to listen really closely.

I already put a tab up for this part and it is 100% correct. When I met the lead guitarist of Parkway Drive (Jeff Ling) I showed him the tab I created and asked him if it was correct (I watched numerous live videos and listened to the solo over and over to make sure it was tabbed correctly). Jeff Ling confirmed it is 100% correctly tabbed.

Here is a video where you can hear exactly what is happening during this part of the song:

http://www.youtube.com/watch?v=m7vAlwJQdQs

Here is the 100% correct tab of this part:

http://tabs.ultimate-guitar.com/p/parkway_drive/wild_eyes_solo_tab.htm

guest
You may want to rate the tab now too:
select rating
Wanna post a correction for this tab? Suggest correction