Oops, an error
Loading. Please wait.

My Automobile bass

version 2
version 2

Whole song

  • Taken from the following video: https://youtu.be/w2ug_-_5TBQ (begins at 1:47).
22 views 1 this week
no commentswrite comment
1 2 3 4 5
2 more votes to show rating
add to favorites
×
Save as Personal and add changes to this tab that will be seen only by you. Learn more ›
×
You can save this tab as Personal to edit and correct it or add notes. All changes will be seen only by you. Learn more »
launch autoscroll
font size
0
reset
guitar tuner
edit
Autoscroll
slow
fast
+/-
esc
set tempo
stop
Artist: Parliament
Song: My Automobile
Tuning - Standard
tabbed by electricbunny

[Intro]
G|--------------------------------|--------------------------------|
D|--------------------------------|--------------------------------|
A|0-------------------------------|0-------------------------------|
E|----------------0---------------|----------------0-------2-------|
 
G|--------------------------------|--------------------------------|
D|--------------------------------|--------------------------------|
A|0-------------------------------|0-------------------------------|
E|----------------0---------------|----------------0-------2-------|
 
G|--------------------------------|--------------------------------|
D|--------------------------------|--------------------------------|
A|0-------------------------------|0-------------------------------|
E|----------------0---------------|----------------0-------2-------|
 
G|--------------------------------|--------------------------------|
D|--------------------------------|--------------------------------|
A|0-------------------------------|0-------------------------------|
E|----------------0---------------|----------------0-------2-------|

[Verse] 
G|--------------------------------|--------------------------------|
D|--------------------------------|--------------------------------|
A|0-------------------------------|0-------------------------------|
E|----------------0---------------|----------------0-------2-------|
 
G|--------------------------------|--------------------------------|
D|--------------------------------|--------------------------------|
A|0-------------------------------|0-------------------------------|
E|----------------0---------------|----------------0-------2-------|
 
G|--------------------------------|--------------------------------|
D|--------------------------------|--------------------------------|
A|0-------------------------------|0-------------------------------|
E|----------------0---------------|----------------0-------2-------|
 
G|--------------------------------|--------------------------------|
D|--------------------------------|------------0---2-0-------------|
A|----------------2---------------|--------------------2---0-------|
E|0-------------------------------|0-------------------------------|

[Chorus] 
G|--------------------------------|--------------------------------|
D|--------------------------------|--------------------------------|
A|0-------------------------------|0-----------0---2-------4-------|
E|----------------0---------------|--------------------------------|
 
G|--------------------------------|--------------------------------|
D|0-------------------------------|0-----------0-------------------|
A|----------------0---------------|----------------4-------2-------|
E|--------------------------------|--------------------------------|
 
G|--------------------------------|--------------------------------|
D|----------------0-------1-------|2-------------------------------|
A|0-------------------------------|----2-------------------0-------|
E|--------------------------------|--------0-------2---2-----------|
 
G|--------------------------------|--------------------------------|
D|--------------------------------|--------------------------------|
A|0-------------------------------|0-------------------------------|
E|----------------0---------------|----------------0---0---2---2---|

[Verse] 
G|--------------------------------|--------------------------------|
D|--------------------------------|--------------------------------|
A|0-------------------------------|0-------------------------------|
E|----------------0---------------|----------------0-------2-------|
 
G|--------------------------------|--------------------------------|
D|--------------------------------|--------------------------------|
A|0-------------------------------|0-------------------------------|
E|----------------0---------------|----------------0-------2-------|
 
G|--------------------------------|--------------------------------|
D|--------------------------------|----------------0-------1-------|
A|0-------------------------------|0-----------0-------------------|
E|----------------0---------------|--------------------------------|
 
G|--------------------------------|--------------------------------|
D|2-----------2-------------------|2-------------------------------|
A|----------------2---------------|------2-----------------0-------|
E|------------------------0-------|--------0-------3-3-3-----------|

[Chorus] 
G|--------------------------------|--------------------------------|
D|--------------------------------|--------------------------------|
A|0-------------------------------|0-----------0---2-------4-------|
E|----------------0---------------|--------------------------------|
 
G|--------------------------------|--------------------------------|
D|0-------------------------------|0-----------0-------------------|
A|----------------0---------------|----------------4-------2-------|
E|--------------------------------|--------------------------------|
 
G|--------------------------------|--------------------------------|
D|----------------0-------1-------|2-------------------------------|
A|0-------------------------------|----2-------------------0-------|
E|--------------------------------|--------0-------2---2-----------|
 
G|--------------------------------|--------------------------------|
D|--------------------------------|--------------------------------|
A|0-------------------------------|0-------------------------------|
E|----------------0---------------|----------------0---0---2---2---|

[Verse] 
G|--------------------------------|--------------------------------|
D|--------------------------------|--------------------------------|
A|--------0-----------------------|0-------------------------------|
E|--------------------------------|----------------0---------------|
 
G|--------------------------------|--------------------------------|
D|--------------------------------|--------------------------------|
A|0-------------------------------|0-------------------------------|
E|----------------0-------2-------|----------------0---------------|
 
G|--------------------------------|--------------------------------|
D|--------------------------------|----------------0-------1-------|
A|0-------------------------------|0-------------------------------|
E|----------------0-------2-------|--------------------------------|
 
G|--------------------------------|--------------------------------|
D|2-----------2-------------------|2-------------------------------|
A|----------------2---------------|------2-----------------0-------|
E|------------------------0-------|--------0-------3-3-3-----------|

[Chorus] 
G|--------------------------------|--------------------------------|
D|--------------------------------|--------------------------------|
A|0-------------------------------|0-----------0---2-------4-------|
E|----------------0---------------|--------------------------------|
 
G|--------------------------------|--------------------------------|
D|0-------------------------------|0-----------0-------------------|
A|----------------0---------------|----------------4-------2-------|
E|--------------------------------|--------------------------------|
 
G|--------------------------------|--------------------------------|
D|----------------0-------1-------|2-------------------------------|
A|0-------------------------------|----2-------------------0-------|
E|--------------------------------|--------0-------2---2-----------|
 
G|--------------------------------|--------------------------------|
D|--------------------------------|--------------------------------|
A|0-------------------------------|0-------------------------------|
E|----------------0---------------|----------------0---0---2---2---|

[Outro] 
G|--------------------------------|--------------------------------|
D|----------------3---------------|3-----------3---1-------3-------|
A|1-----------1-----------1-1-1---|--------------------------------|
E|--------------------------------|--------------------------------|
 
G|------------------------0-------|------------------------0-------|
D|----------------3-----------3---|----------------3---------------|
A|1-------------------------------|1-----------1-------------------|
E|--------------------------------|--------------------------------|
 
G|------------------------0-------|--------------------------------|
D|----------------3---3-------3---|----------------1-1-1---3-------|
A|1-------------------------------|1-----------1-------------------|
E|--------------------------------|--------------------------------|
 
G|------------------------0-------|------------------------0-------|
D|----------------3-----------3---|----------------3---------------|
A|1-------------------------------|1-----------1-------------------|
E|--------------------------------|--------------------------------|
 
G|------------------------0-------|------------------------0-------|
D|----------------3-----------3---|----------------3---------------|
A|1-------------------------------|1-----------1-------------------|
E|--------------------------------|--------------------------------|
 
G|------------------------0-------|------------------------0-------|
D|----------------3-----------3---|----------------3-----------3---|
A|1-------------------------------|1-----------1-------------------|
E|--------------------------------|--------------------------------|
 
G|------------------------0-------|------------------------0-------|
D|----------------3-----------3---|----------------3---------------|
A|1-------------------------------|1-----------1-------------------|
E|--------------------------------|--------------------------------|
 
G|----------------2---------------|--------------------------------|
D|3-----------3-----------3-------|3-------------------------------|
A|--------------------------------|----------------3---------------|
E|--------------------------------|--------------------------------|
 
G|--------------------------------|--------------------------------|
D|3---------------3---------------|----------------3-----3---2-----|
A|--------------------------------|1-------------------------------|
E|--------------------------------|--------------------------------|
 
G|--------------------------------|--------------------------------|
D|1-------------------------------|1-------------------------------|
A|----------------1---------------|----3---1-------1-------1-------|
E|--------------------------------|--------------------------------|
 
G|--------------------------------|--------------------------------|
D|----------------1-------2-------|--------------------------------|
A|1-------------------------------|------------------------1-------|
E|--------------------------------|1---------------1---------------|
 
G|------------------------0-------|--------------------------------|
D|------------1---3-----------3---|----------------1-------3-------|
A|1-------------------------------|1---1-------1-------------------|
E|--------------------------------|--------------------------------|
 
G|--------------------------------|--------------------------------|
D|3---------------3-----------3---|3-----------3---3---------------|
A|--------------------------------|--------------------------------|
E|--------------------------------|--------------------------------|
 
G|--------------------------------|--------------------------------|
D|----------------0-------3-------|----------------0---------------|
A|1-------------------------------|1-----------1-------------------|
E|--------------------------------|--------------------------------|
 
G|--------------------------------|--------------------------------|
D|3---------------3-------2---3---|------------3-------------------|
A|--------------------------------|----------------1-----------1---|
E|--------------------------------|--------------------1-----------|
 
G|--------------------------------|
D|--------------------------------|
A|----------------------------1---|
E|--------1-----------3-----------|

            
            
Suggest correction
Creating personal tab
Creating personal tab
You can edit any tab online and save it as your Personal.

You can edit, replace or remove any tab part or add personal notes – all changes will be seen only by you.

Personal tabs can be accessed anytime from any device, even offline.
Learn more »
Give kudos to tab author, rate the tab!
1 2 3 4 5
comments
print report bad tab
guest
You may want to rate the tab now too:
select rating
Wanna post a correction for this tab? Suggest correction