Oops, an error
Loading. Please wait.

Sve Jos Mirise Na Nju Tab

version 1
version 1

Whole song

Interactive

20,638 views 66 this week
no commentswrite comment
1 2 3 4 5
excellent!
x 9
add to favorites
launch autoscroll
font size
0
reset
how to read this tab
guitar tuner
Autoscroll
slow
fast
+/-
esc
set tempo
stop
Help us to improve Ultimate-Guitar.com Take our survey!
×
  (Intro)
E|---------|---------|---------|---------|---------3---|--------------|
H|-----3---|-----3---|-----3---|-----3---|-------3---6-|---6-5--------|
G|---3---3-|---3-----|---3---3-|---3---3-|-----3-------|--5----5---7--|
D|-5-------|-3-----3-|-2-------|-1-------|-3/5---------|-5-------5----|
A|---------|---------|---------|---------|-------------|--------------|
E|---------|---------|---------|---------|-------------|--------------|

   Gm          Gm/F      Gm/E      Gm/A#     Gm          Gm/F      D         
E|-----------|---------|---------|---------|---------3-|---------|---------2-|
H|-------3---|-----3---|-----3---|-----3---|-------3---|-----3---|-----3-----|
G|-----3---3-|---3-----|---3-----|---3---3-|-----3-----|---3---3-|---2---2---|
D|-3/5-------|-3-----3-|-2-----2-|-1-------|-3/5-------|-3-------|-0---------|
A|-----------|---------|---------|---------|-----------|---------|-----------|
E|-----------|---------|---------|---------|-----------|---------|-----------|
       Ne pitaj nocas nista        pusti me da sutim ja nocas trebam mir

   Gm         Gm/F     Gm/E      Gm/A#     Gm          Gm/F      D            
E|---------|---------|---------|---------|---------3-|---------|---------2-|
H|-----3---|-----3---|-----3---|-----3---|-------3---|-----3---|-----3-----|
G|---3---3-|---3-----|---3-----|---3---3-|-----3-----|---3---3-|---2---2---|
D|-5-------|-3-----3-|-2-----2-|-1-------|-3/5-------|-3-------|-0---------|
A|---------|---------|---------|---------|-----------|---------|-----------|
E|---------|---------|---------|---------|-----------|---------|-----------|
     Stare...opet peku  moje...  dalje...  duso   ti   nemas nista s tim   

              D#        A#        Cm        Gm        D#          A#
E|----------|---------|---------|---------|---------|-----------|---------|
H|----------|-------8-|-----3---|-------4-|---------|---------8-|-----3---|
G|----------|-----8---|-------3-|-----5---|-----3---|-------8---|-------3-|
D|----------|---8-----|---3-----|---5-----|-------5-|-----8-----|---3-----|
A|----------|-6-------|-1-------|-3-------|---5-----|-3/6-------|-1-------|
E|----------|---------|---------|---------|-3-------|-----------|---------|
  Sa tvojeg   izvo......ra moja.. dusa napila         zedna       tvojih godina 

   D                 D#        A#        Cm        Gm        A#
E|---------3p2-----|---------|---------|---------|---------|---------|
H|-----3-------3---|-------8-|-----3---|-------4-|---------|-------3-|
G|---2---2-------2-|-----8---|-------3-|-----5---|-----3---|-----3---|
D|-0---------------|---8-----|---3-----|---5-----|-------5-|---3-----|
A|-----------------|-6-------|-1-------|-3-------|---5-----|-1-------|
E|-----------------|---------|---------|---------|-3-------|---------|
             i sada mamur......na  pita  gdje je utjeha      gdje je

   F         Gm     
E|---------|----------|-----------|
H|---------|----------|-----------|
G|-----2---|-----3----|-----------|
D|-------3-|-------5--|-----0-0-3-|
A|---3-----|---5------|-1h3-------|
E|-1-------|-3--------|-----------|
   mladost nestala


(Solo - pratnja)   
E|---------|---------|---------|---------|---------3---|--------------|
H|-----3---|-----3---|-----3---|-----3---|-------3---6-|---6-5--------|
G|---3---3-|---3-----|---3---3-|---3---3-|-----3-------|--5----5---7--|
D|-5-------|-3-----3-|-2-------|-1-------|-3/5---------|-5-------5----|
A|---------|---------|---------|---------|-------------|--------------|
E|---------|---------|---------|---------|-------------|--------------|

E|---------5-6-3-----|---------|---------|---------|---------|---------0-|
H|-------3-----------|-----3---|-----3---|-----4---|-----4---|-----3-----|
G|-----3---------3---|---3---3-|---3---3-|---3---3-|---3---3-|---2---2---|
D|-3/5-------------5-|-3-------|-2-------|-1-------|-1-------|-0---------|
A|-------------------|---------|---------|---------|---------|-----------|
E|-------------------|---------|---------|---------|---------|-----------|



E|---------|---------|---------|---------|---------3-|---------|---------2-|
H|-----3---|-----3---|-----3---|-----3---|-------3---|-----3---|-----3-----|
G|---3---3-|---3-----|---3-----|---3---3-|-----3-----|---3---3-|---2---2---|
D|-5-------|-3-----3-|-2-----2-|-1-------|-3/5-------|-3-------|-0---------|
A|---------|---------|---------|---------|-----------|---------|-----------|
E|---------|---------|---------|---------|-----------|---------|-----------|
     idu...  ja ih...    ponek...tebe....  duso        trazim zaborav

E|---------|---------|---------|---------|---------3-|---------|-2-2-2-2-2-|
H|-----3---|-----3---|-----3---|-----3---|-------3---|-----3---|-3-3-3-3-3-|
G|---3---3-|---3-----|---3-----|---3---3-|-----3-----|---3---3-|-2-2-2-2-2-|
D|-5-------|-3-----3-|-2-----2-|-1-------|-3/5-------|-3-------|-0-0-0-0-0-|
A|---------|---------|---------|---------|-----------|---------|-----------|
E|---------|---------|---------|---------|-----------|---------|-----------|
     Molim...da se...    tragov..njenim....tiho        kao da je tu


                  Gm
Sve jos mirise na nju
  A#    F            Cm  Cm A#
I dan i jutro sto ce doc
Gm        A#   Cm        D   D F
Nakon ove noci, noci bez sna
Gm        A#     Cm            A#  F 
I dvjesto godina, da ih brojim u samoci
Gm   A#         D
Od kako je otisla


        D#  A#
U mojim venama
       Cm         Gm
Jos je njenog otrova
D#     A#        D
Jos je doza prejaka
       D# A#  Cm        Gm   A# Cm D
A tebe ljubim da ne poludim....      da zaboravim


Solo(Orgulje)  |Gm F| |E D#| |Gm F| |D D| |Gm F| |E D#| |C | |D |
E|----------|---------|---------|---------|---------|-----------|---------|
H|----------|-------8-|-----3---|-------4-|---------|---------8-|-----3---|
G|----------|-----8---|-------3-|-----5---|-----3---|-------8---|-------3-|
D|----------|---8-----|---3-----|---5-----|-------5-|-----8-----|---3-----|
A|----------|-6-------|-1-------|-3-------|---5-----|-3/6-------|-1-------|
E|----------|---------|---------|---------|-3-------|-----------|---------|
  U mojim     vena.....ma  jos je njenog otrova       jos je      doza prejaka


E|---------3p2-----|---------|---------|---------|---------|---------|
H|-----3-------3---|-------8-|-----3---|-------4-|---------|-------3-|
G|---2---2-------2-|-----8---|-------3-|-----5---|-----3---|-----3---|
D|-0---------------|---8-----|---3-----|---5-----|-------5-|---3-----|
A|-----------------|-6-------|-1-------|-3-------|---5-----|-1-------|
E|-----------------|---------|---------|---------|-3-------|---------|
             A tebe  ljub......im        da ne poludim       samo

E|---------|---------------3-|
H|---------|---------3----3--|
G|-----2---|-------3-----3---|
D|-------3-|-----5------5----|
A|---3-----|-----------5-----|
E|-1-------|-1/3-------------|.
   da zaboravim
Suggest correction new What's this?
You can suggest a correction to this tab. Community and Mods will review your correction and vote to approve or reject it.
comments
print report bad tab
guest
You may want to rate the tab now too:
select rating
Please do not post tabs as comments. Select "correction" instead!