Oops, an error
Loading. Please wait.

Uhvati Ritam Tab

208 views 1 this week
no commentswrite comment
1 2 3 4 5
2 more votes to show rating
add to favorites
launch autoscroll
font size
0
reset
how to read this tab
guitar tuner
Autoscroll
slow
fast
+/-
esc
set tempo
stop
Help us to improve Ultimate-Guitar.com Take our survey!
×
Author
e---|-0-------|-----|-----|---|-0-------|-----|-------|---|
H-2-|---3-2-0-|---0-|-2---|-2-|---3-2-0-|---0-|-2/3---|-2-|
G---|---------|-2---|-----|---|---------|-2---|-----2-|---|
D---|---------|-----|---2-|---|---------|-----|-------|---|
A---|---------|-----|-----|---|---------|-----|-------|---|
E---|---------|-----|-----|---|---------|-----|-------|---|

e-0-------|---------|-------|-------|-0-------|-----|----0---|
H---3-2-0-|---------|---2-0-|---0-2-|---3-2-0-|---0-|-/2---2-|
G---------|-2-2h4---|-2-----|-2-----|---------|-2---|--------|
D---------|---------|-------|-------|---------|-----|--------|
A---------|---------|-------|-------|---------|-----|--------|
E---------|---------|-------|-------|---------|-----|--------|
Suggest correction
Give kudos to tab author, rate the tab!
1 2 3 4 5
comments
print report bad tab
guest
You may want to rate the tab now too:
select rating
Wanna post a correction for this tab? Suggest correction