Oops, an error
Loading. Please wait.

Choco Latte Tab

version 1
version 1

Whole song

29,910 views 15 this week
1 commentread comment
1 2 3 4 5
x 19
add to favorites
launch autoscroll
font size
0
reset
how to read this tab
guitar tuner
×
Best way to learn
"Choco Latte"
Autoscroll
slow
fast
+/-
esc
set tempo
stop
[Intro]
(Guitar 1)
      A      Bm
e|----0------2---------------------------------|
B|----2------3---------------------------------|
G|----2------4---------------------------------| (4 times)
D|----2------4---------------------------------|
A|----0------2---------------------------------|
E|---(0)----(2)--------------------------------|

(Guitar 2)
                  A             Bm      
e|------------|----------------------------------------------|
B|------10—12-|--12b14--12—12b14r12--10----10—10h12p10-10-12-|
G|-9s11-------|-------------------------11-------------------|
D|------------|----------------------------------------------|
A|------------|----------------------------------------------|
E|------------|----------------------------------------------|

       A                  Bm            
e|-------12s10-9-9-10—10p9-----------------------------------|
B|-12s14-------------------10s/------------------------------|
G|-----------------------------------------------------------|
D|-----------------------------------------------------------|
A|-----------------------------------------------------------|
E|-----------------------------------------------------------|

                  A                 Bm                     A
e|-------------|----------------------------------------------|
B|-------10-12—|12b4-12b14-12—12b14r12-10---------------------|
G|--9s11-------|--------------------------11-9-9h11p9-9-------|
D|-------------|----------------------------------------11s/--|
A|-------------|----------------------------------------------|
E|-------------|----------------------------------------------|

                  Bm (break)
e|---------------12s/---------|
B|----------9-----------------|
G|-------10---10--------------|
D|-----9----------------------|
A|--11------------------------|
E|----------------------------|


[Verse 1]
(Guitar 1 Chords)
      A     Bm     C#m  E     Esus
e|----0------2------4---0-------0-----|
B|----2------3------5---0-------0-----|
G|----2------4------6---1-------2-----|
D|----2------4------6---2-------2-----|
A|----0------2------4---2-------2-----|
E|---(0)----(2)----(4)--0-------0-----|

A                       Bm
Di ba't sinabi mo sa akin dati
        A                       Bm
Na mahirap kumain ng tsokolateng
A                       Bm
Natunaw at parang wala nang korte
A                          Bm
Kadiri nang kainin, mukha nang ta
C#m                             Bm
Ewan ko ba kung bakit mahirap ibalik
        C#m             
Sa original na hugis pag 
Bm                 E—Esus—E (break)
Nalusaw na sa init

[Chorus 1]
*Guitar 2 then plays the same chords with power chords*
            A         Bm 
Parang tiwala pag nasira na
    A               Bm  
Mahirap nang ayusin pa
        A         Bm
Di kayang ipagdikit 
        A               Bm      A(break)
Ang tiwala pag napunit
Parang nangyari kailan lang...
     A            Bm                            A
e|-----------------------------------------------------------|
B|-----------10----12--10-----12--10-------------------------|
G|------9-11----11--------11---------11----------------------|
D|---11----------------------------------11/-----------------|
A|-----------------------------------------------------------|
E|-----------------------------------------------------------|

Bm (break)
e|---------------12s/---------|
B|----------9-----------------|
G|-------10---10--------------|
D|-----9----------------------|
A|--11------------------------|
E|----------------------------|

[Verse 2]       
              A                      Bm              A       Bm
Meron akong nakitang nakatagong regalo sa likod ng kotse mo
               A            Bm
Hugis puso na kahon, at may red na ribbon
A(break)          Bm(break)     
Mamahaling toblerone at,
  A        Bm        A            Bm        
Noong aking tingnan, para sa iyo mula kay Christian
  A             Bm              A               Bm      
Agad kong binuksan, tsokolate ang laman
    A                                   Bm
At di ko malaman kung ba't kailangang
  A                     Bm
Itago sa akin ang katotohanan
        A               Bm
Ang dami-dami mo palang tsokolate,
A                       Bm
Di ka man lamang nagsasalita
C#m                             Bm
Ewan ko ba kung bakit hindi ko napigilan
        C#m
Ang regalo mo'y naubos ko 
        Bm              E—Esus—E (break)
Nang di ko nalalalaman

[Chorus 2]
*Guitar 2 then plays the same chords with power chords*
           A               Bm
Parang tiwala pag naubos na
    A           Bm      
Bigla-biglaan talaga
   A       Bm   
Mahirap nang makita
           A            Bm                      
Kapag minsa'y nawala

[Bridge]
(Guitar 1 Chords)
      A    Bsus2   C#m  E       
e|----0------2------4---0------------|
B|----2------3------5---0------------|
G|----2------4------6---1------------|
D|----2------4------6---2------------|
A|----0------2------4---2------------|
E|---(0)----(2)----(4)--0------------|

(Guitar 2 Chords)
      A     Bsus2  C#m  E       
e|----x------x------x---x------------|
B|----x------x------x---x------------|
G|----x------4------6---9------------|
D|----7------4------6---9------------|
A|----7------2------4---7------------|
E|----5------x----------x------------|

(Guitar 1 and Guitar 2 both play chords)
    C#m        A           E     Bsus2
At kahit na pilitin, di mo na mapapalitan,
  C#m          A           E            Bsus2
Kahit hanap-hanapin, di mo na mababalikan,
  C#m       A        E          Bsus2
Kahit sabihin natin na ika'y mapagbigyan,
                A *guitar 2 holds A chord*  
Huwag na lang...

Bsus2 *only guitar 1 does this*

[Lead-in]
(Guitar 1)
(Do A-Bm Chords 4 times)

(Guitar 2)

e|---17-17-14-----------------------------------------------12s10--|
B|------------17-17-14-12-12--10----10-10h12p10-10-12-12s14--------|
G|-------------------------------11--------------------------------|
D|-----------------------------------------------------------------|
A|-----------------------------------------------------------------|
E|-----------------------------------------------------------------|

e|---9-9-10-12-10-12-14---12h14-17-17p14p12-t19p14p12-t17p14p12----|
B|-----------------------------------------------------------------|
G|-----------------------------------------------------------------|
D|-----------------------------------------------------------------|
A|-----------------------------------------------------------------|
E|-----------------------------------------------------------------|

e|---t19p14p12-t17p14p12-t19p14p12-t17p14p12-t19p14p12—|
B|-----------------------------------------------------|
G|-----------------------------------------------------|
D|-----------------------------------------------------|
A|-----------------------------------------------------|
E|-----------------------------------------------------|

e|---17-17-14-12-12-----------------------------|
B|------------------14-12-12--10----10----------|
G|-------------------------------11-----11s/----|
D|----------------------------------------------|
A|----------------------------------------------|
E|----------------------------------------------|

(Guitar 2 does the following lead-in)
        C#m
    Ewan ko ba kung bakit
e|----------------------------------------------|
B|--------------------------10~-----------------|
G|------/4~----(4)/9~--9h11---------------------|
D|----------------------------------------------|
A|--/4~-----------------------------------------|
E|----------------------------------------------|
        Bm                              C#m
    Mahirap tanggalin ang tsokolate

e|----------------------------------------------|
B|----------------------------------------------|
G|----------9—9h11~--9h11p9—7—6~\---------------|
D|-----7h9--------------------------------------|
A|--9~------------------------------------------|
E|----------------------------------------------|
        pag natunaw at 

e|----------------------------------------------|
B|--------------------------10~-----------------|
G|------/4~----(4)/9~--9h11---------------------|
D|----------------------------------------------|
A|----------------------------------------------|
E|----------------------------------------------|
          Bm           E-Esus-E 
         kumapit na sa ngipin...

e|---------------------------------------------|
B|---------------------------------------------|
G|---------------------------------------------|
D|----7—9p7-------9-x-9-x-9-x-9-x-9-x-9--------|
A|--9--------9-7--7-x-7-x-7-x-7-x-7-x-7--------|
E|----------------0-x-0-x-0-x-0-x-0-x-0--------|

                        |-----palm mute-----|

            A           Bm
Parang tiwala pag namantsahan na
   A                Bm
Mahirap nang linisin pa
        A        Bm
Di kayang burahin
        A       Bm
Kahit na anong gawin

Parang tiwala...

A                 Bm                            A
e|-----------------------------------------------------------| 
B|-----------10----12--10-----12--10-------------------------|
G|------9-11----11--------11---------11----------------------|
D|---11----------------------------------11/-----------------|
A|-----------------------------------------------------------|
E|-----------------------------------------------------------|
                                                                (two times)

  A               Bm                            A
e|-----------------12--9------12--9--------------------------|
B|-----------10----------10----------10----------------------|
G|------9-11----11-------------------------------------------|
D|---11------------------------------------------------------|
A|-----------------------------------------------------------|
E|-----------------------------------------------------------|

[Outro]
                   A            Bm      
e|------------|----------------------------------------------|
B|------10—12-|--12b14--14b12-10-12-10----10-10h12p10-10-12--|
G|-9s11-------|-------------------------11-------------------|
D|------------|----------------------------------------------|
A|------------|----------------------------------------------|
E|------------|----------------------------------------------|

      A            Bm                   |--do a supershift      
e|-------12s10-9-9-10h12—10-12s14-14/---------17-19-19b21—19-19b21r19-17/-|
B|-12s14--------------------------------17s19-----------------------------|
G|------------------------------------------------------------------------|
D|------------------------------------------------------------------------|
A|------------------------------------------------------------------------|
E|------------------------------------------------------------------------|

                          Bm (break)
e|-----------------------12s/---------|
B|--10-9------------9-----------------|
G|-------9~------10---10--------------|
D|-------------9----------------------|
A|----------11------------------------|
E|------------------------------------|



************************************

| (n)  Ghost note
| h    Hammer-on
| p    Pull-off
| r    Release
| b    Bend
| /    Slide up
| x    Dead note
| t    Tapping
| ~    Vibrato

************************************
Suggest correction
comments
print report bad tab
1 comment total.
0 reply
michael92 10 Jan 14, 2005 07:00 PM

You are very Careless with your writing

guest
You may want to rate the tab now too:
select rating
Wanna post a correction for this tab? Suggest correction