Oops, an error
Loading. Please wait.

Halaga Tab

version 1
version 1

Whole song

Interactive

100,968 views 60 this week
2 commentsread comments
1 2 3 4 5
x 10
add to favorites
launch autoscroll
font size
0
reset
how to read this tab
guitar tuner
Autoscroll
slow
fast
+/-
esc
set tempo
stop
Help us to improve Ultimate-Guitar.com Take our survey!
×
HALAGA TABLATURE

[intro/filler/outro] (distortion)
  guitar 1
e|-------0--2-3-2-0-2-----------5-3-2-3-2------0---------|
B|-----3--------------3-------------------3---3--3-2-3---|
G|---2------------------2----/4-------------2------------|  2x
D|-------------------------------------------------------|
A|-------------------------------------------------------|
E|-------------------------------------------------------|

  guitar 2
e|------------14-15-14--14------------17-15-14-15-14------------------------|
B|------15-17---------15--15------------------------15-----15-17-15-14-15---|
G|---14---------------------14----/16-------------------14------------------|  2x
D|--------------------------------------------------------------------------|
A|--------------------------------------------------------------------------|
E|--------------------------------------------------------------------------|

  [solo] (distortion)
e|-------------------------------------------------------------|
B|---/10-10-10-10--8-7-8---7-8/10-10--8-7--7----7--------------|
G|-----------------------------------------9(b)---9(b)-7---7---|
D|-------------------------------------------------------9-----|
A|-------------------------------------------------------------|
E|-------------------------------------------------------------|

e|----------------17-------------------------------------------------------|
B|--------15-17(b)--17(b)---17(b)-15-17-15-14------------------------------|
G|---14/16--------------------------------------/11-11-11-11-9-7/9-7-6-4---|
D|-------------------------------------------------------------------------|
A|-------------------------------------------------------------------------|
E|-------------------------------------------------------------------------|

************************************

| /   Slide up
| (b) Bend 1 whole step

************************************
Suggest correction
comments
print report bad tab
2 comments total.
0 reply
flipnezz182 10 Dec 27, 2002 12:00 AM

dude, awesome tab

0 reply
Kevin B Janaban 10 Oct 31, 2005 06:09 PM

aus!!! Galing!!

guest
You may want to rate the tab now too:
select rating
Wanna post a correction for this tab? Suggest correction