Oops, an error
Loading. Please wait.

Mang Jose solo tab

version 1
version 1

Solo

Whole song

Interactive

8,634 views 6 this week
2 commentsread comments
1 2 3 4 5
x 3
add to favorites
×
Save as Personal and add changes to this tab that will be seen only by you. Learn more ›
×
You can save this tab as Personal to edit and correct it or add notes. All changes will be seen only by you. Learn more »
launch autoscroll
font size
0
reset
how to read this tab
guitar tuner
edit
Autoscroll
slow
fast
+/-
esc
set tempo
stop
Author
Difficulty
  
     Title:Mang Jose
        by:Parokya ni Edgar
 Tabbed by:Aztecs
    Tuning:ebgdae

  Dito yung start ng solo hanggang sa bago magrefrain pa lang 
  ang nagagawa ko hindi hindi pa ako tapos doon sa iba, sa
  tingin tama yung start pero may kaunti ring mali sa ibang
  part... hanggang diyan na lang muna saka na yung iba kapag
  tapos na...pakinggang ninyo muna bago niyo gawin.
  
  b-bend       h-hammer
  /-slide      p-pull-off

  Solo:

  do this fast..
 |-----------12-15-12----15-12-15-12----12-15-12----15-12-15-12------|
 |--------12----------15-------------12----------15------------------|
 |-12b-14------------------------------------------------------------|
 |-------------------------------------------------------------------|
 |-------------------------------------------------------------------|
 |-------------------------------------------------------------------| 
  slowly..
 |-------17b-15-14-----------------------------------------------|
 |----17-----------15b-13-12-13-12-12h13-10-10/12----------------|
 |-16---------------------------------------------9-12-9---------|
 |---------------------------------------------------------------|
 |---------------------------------------------------------------|
 |---------------------------------------------------------------|
  continuation..
 |--------------------------------------------12--15-17b---------|
 |-----------------------------------------12--------------------|
 |--------------------------14-------12-14-----------------------|
 |--7h9--9/12--12h14--14/17-------14-----------------------------|
 |---------------------------------------------------------------|
 |---------------------------------------------------------------| 
  do this fast..
 |---14-15-17h19p17---14-15-17h19p17---14-15-17h19p17-------|
 |----------------------------------------------------------|
 |----------------------------------------------------------|
 |----------------------------------------------------------|
 |----------------------------------------------------------|
 |----------------------------------------------------------|
  do this fast..
 |---14-15-17h19p17---14-15-17h19p17---------|
 |-------------------------------------------|
 |-------------------------------------------|
 |-------------------------------------------|
 |-------------------------------------------|
 |-------------------------------------------| 

  Dito na yung lead sa huling chorus nitong kanta
  mabilis na rin dito hanggang sa matapos na yan
  meron pang ibang lead dito bago mag last chorus,
  doon sa unang chorus,kaya hindi pa tapos

  Mang Jose parang si Daimos din..

 |-------------------------------------------------------------------12-15b-|
 |-------------------------------------------------12----12h13-12-13--------|
 |-------------------------------12----12h14-12h14----14--------------------|
 |-------------12----12h14-12h14----14--------------------------------------|
 |-12h14-12h14----14--------------------------------------------------------|
 |--------------------------------------------------------------------------|

  Ngunit pagkatapos ay bigla kang sisingilin..

 |-14-15-17-17h19p17--15h17p15--14h15p14----------------------------|
 |----------------------------------------17h19p17--15h17p15--------|
 |------------------------------------------------------------------|
 |------------------------------------------------------------------|
 |------------------------------------------------------------------|
 |------------------------------------------------------------------|

  Mang Jo..che..nen..chen....chen..chen

 |-------------------------15-14--15-14-12b-12b-12b-----------------|
 |-12h15p12-12-------12-15------------------------------------------|
 |----------------14------------------------------------------------| 
 |------------------------------------------------------------------|     
 |------------------------------------------------------------------|
 |------------------------------------------------------------------|

 Pakirate naman po..Thanks..
 
 

            
            
Suggest correction
Creating personal tab
Creating personal tab
You can edit any tab online and save it as your Personal.

You can edit, replace or remove any tab part or add personal notes – all changes will be seen only by you.

Personal tabs can be accessed anytime from any device, even offline.
Learn more »
Give kudos to tab author, rate the tab!
1 2 3 4 5
comments
print report bad tab
2 comments total.
0 reply
gakkung85 20 Apr 14, 2007 06:34 AM

nde k p nasusubukan pro prang auz nmn ata...
saka k n lng subukan hehe...
busy p ako sa hotel california eh ^__^

0 reply
KingSquall802 10 Feb 24, 2008 06:56 AM

the tapping part is lacking. do u hav any videos?

guest
You may want to rate the tab now too:
select rating
Wanna post a correction for this tab? Suggest correction