Oops, an error
Loading. Please wait.

Mr Suave Tab

version 3
version 3

Whole song

Interactive

14,829 views 9 this week
no commentswrite comment
1 2 3 4 5
x 5
add to favorites
launch autoscroll
font size
0
reset
how to read this tab
guitar tuner
Autoscroll
slow
fast
+/-
esc
set tempo
stop
Help us to improve Ultimate-Guitar.com Take our survey!
×
Author
    "Mr. Suave"
 ng Parokya ni Edgar
tabbed by: jin

intro:
       Bm              E                        A                 F#m

|-2---------------|------4-5-4h5\4---------|-----5-7-7-5-4---|-----2-4-5~~-|
|-3---3---3---2-3-|----5-----------5-------|-2-5-----------5-|---2---------|
|-4-4---4---4-----|-4----------------6-4---|-----------------|-2-----------|
|-4---------------|------------------------|-----------------|-------------|
|-2---------------|------------------------|-0---------------|-------------|
|-----------------|-0----------------------|-----------------|-2-----------|

          Bm                E                   F#m

|-2---------------|-------------------|------------------2*-|
|-3---3---3---2-3-|-------------------|-2-2h3\2----------2*-|
|-4-4---4---4-----|-4-2-1---1h2\1---1-|---------2-1------2*-|
|-4---------------|-------2-------2---|-------------2-----*-|
|-2---------------|-------------------|---------------------|
|-----------------|-0-----------------|---------------------|

Verse and intro chords: Bm-E-A-F#m
                        Bm-E-F#m
(pakinggan nyo na lang yung strumming nito)
   Bm    E    A   F#m  Bm    E   F#m  Fm F#m

e|--2----0----5----2----2----0----2----1--2-----|
B|--3----0----5----2----3----0----2----1--2-----|
G|--4----1----6----2----4----1----2----1--2-----|
D|--4----2----7----4----4----2----4----3--4-----|
A|--2----2----7----4----2----2----4----3--4-----|
E|--x----0----5----2----x----0----2----1--2-----|

bahala na kayo sa pag dagdag ng style ng tunog
   Bm                 E                  A                 F#m

|-2----------------|------------------|------------------|-2---------------|
|-3---3---3---3----|-----0---0---0----|-2---2---2---2----|-2---2---2---2---|
|-4-4---4---4---4--|-1-1---1---1---1--|-2-2---2---2---2--|-2-2---2---2---2-|
|-4----------------|-2----------------|-2----------------|-3---------------|
|-2----------------|-2----------------|------------------|-3---------------|
|------------------|------------------|------------------|-2---------------|

            Bm                E            F#m      Fm/F#m

|-2---------------|-------------------|-----2-------2~1~2|
|-3---3---3---2-3-|-0-----------------|-------2---2-2~1~2|
|-4-4---4---4-----|---2-1---1h2-1---1-|---2-----2---2~1~2|
|-4---------------|-------2-------2---|------------------|
|-2---------------|-------------------|------------------|
|-----------------|-0-----------------|-2----------------|
Verse 2

          Bm              E       A               F#m

|-2-------------------|---------|-----------------|-2----------------|
|-3---3---3---2-3-----|-5/7\5~--|-2---2---2---2---|-2---2---2---2----|
|-4-4---4---4-----4~~-|-4/6\4~--|-2-2---2---2---2-|-2-2---2---2---2--|
|-4-------------------|---------|-2---------------|-3----------------|
|-2-------------------|---------|-----------------|-3----------------|
|---------------------|---------|-----------------|-2----------------|


            Bm                E            F#m      Fm/F#m

|-2---------------|-------------------|-----2-------2~1~2|
|-3---3---3---2-3-|-0-----------------|-------2---2-2~1~2|
|-4-4---4---4-----|---2-1---1h2-1---1-|---2-----2---2~1~2|
|-4---------------|-------2-------2---|------------------|
|-2---------------|-------------------|------------------|
|-----------------|-0-----------------|-2----------------|

eto ung sa bridge(same chords pa rin)

kaya't wag ka ng malungkot...
|-10---9-7---9-10-12---10-9---7-9-10---9-7---5-4-5-|
|--------------------------------------------------|
|--------------------------------------------------|
|--------------------------------------------------|
|--------------------------------------------------|
|--------------------------------------------------|
pakinggan nyo na lang ung plucking nito
(eto ung paborito kong part kasi mexican/spanish style hehe...)

hope you like this one!!!
paki rate naman po ito oh pls...
i love you REGELLE SHAYNE MIRANDA para sayo ito!!! 
pati sa mga ka tropa ko!!!
mabuhay ang tugtuging pinoy!!! c",)
Suggest correction
comments
print report bad tab
guest
You may want to rate the tab now too:
select rating
Wanna post a correction for this tab? Suggest correction