Oops, an error
Loading. Please wait.

Pangarap Lang Kita bass

version 2
version 2

Whole song

Interactive

3,122 views 3 this week
2 commentsread comments
1 2 3 4 5
3 more votes to show rating
add to favorites
×
Save as Personal and add changes to this tab that will be seen only by you. Learn more ›
×
You can save this tab as Personal to edit and correct it or add notes. All changes will be seen only by you. Learn more »
launch autoscroll
font size
0
reset
guitar tuner
edit
Autoscroll
slow
fast
+/-
esc
set tempo
stop
Author
Pangarap Lang Kita
Parokya ni Edgar
Tabbed by: avill616@yahoo.com

Para sa pamangkin kong si Arvin Roy request nya to eh

Intro
G|---------|     |-----------------------|
D|---------|     |-------6-5-3-----------|
A|-4--6--8-|     |-4--6--------6--4--6---|
E|---------|2x   |---------------------4-|

Verse1 (chito)
G|---------|    |----------|   |---------|     |-----------------------|
D|---------|    |------6---|   |---------|     |------6-5-3--------6---|
A|-4--6--8-|    |-4--6--6--|   |-4--6--8-|     |-4--6-------6-4--6--6--|
E|---------|3x  |--------4-|   |---------|2x   |---------------------4-|

Chorus1 
G|-----------------|    |-------------------------|
D|-----------------|    |------6-5-3--------------|
A|-4--6--8--8-8-6--|    |-4--6-------6-4--6-------|
E|-----------------|2x  |-------------------4-4-6-|

Instrumental 
G|----------|-------------------|
D|----------|----------8h10-8---|
A|-6--8--10-|-6--8--10-------8--|
E|----------|-----------------6-|

Verse2 (happee sy)
G|----------|    |----------|   |----------|     |-----------------------|
D|----------|    |------8---|   |----------|     |------8-6-5--------8---|
A|-6--8--10-|    |-6--8--8--|   |-6--8--10-|     |-6--8-------8-6--8--8--|
E|----------|3x  |--------6-|   |----------|2x   |---------------------6-|

Chorus2
G|-------------------|    |-----------------------|
D|-------------------|    |------8-6-5--------8---|
A|-6--8--10--10-10-8-|    |-6--8-------8-6--8--8--|
E|-------------------|2x  |---------------------6-|

Instrumental 
G|----------|-----------------|
D|----------|-----------------|
A|-6--8--10-|-6--8--10--------|
E|----------|----------4/17\4-|

Chorus3
G|----------------|    |-----------------------|
D|----------------|    |------7-6-4--------7---|
A|-5--7--9--9-9-7-|    |-5--7-------7-5--7--7--|
E|----------------|2x  |---------------------5-|

Chinese part
G|----------------|    |-----------------------|
D|----------------|    |------7-6-4--------7---|
A|-5--7--9--9-9-7-|    |-5--7-------7-5--7--7--|
E|----------------|2x  |---------------------5-|

Chorus4
G|----------------|    |-----------------------|
D|----------------|    |------7-6-4--------7---|
A|-5--7--9--9-9-7-|    |-5--7-------7-5--7--7--|
E|----------------|2x  |---------------------5-|

G|---------------|---------|
D|---------------|---------|
A|-5--7--9-------|-5--7--9-|
E|---------2h4-2-|---------|



            
            
Suggest correction
Creating personal tab
Creating personal tab
You can edit any tab online and save it as your Personal.

You can edit, replace or remove any tab part or add personal notes – all changes will be seen only by you.

Personal tabs can be accessed anytime from any device, even offline.
Learn more »
Give kudos to tab author, rate the tab!
1 2 3 4 5
comments
print report bad tab
2 comments total.
0 reply
nirvana_14 52 Jan 14, 2012 06:46 AM

pwede na :D

0 reply
wilmargabuyo1 10 Aug 28, 2017 06:02 AM

alam moba ung bass ng HINDI MO BA ALAM-SIAKOL

kung hindi naman ung kung KUNG WALA KA -HALE

guest
You may want to rate the tab now too:
select rating
Wanna post a correction for this tab? Suggest correction