Oops, an error
Loading. Please wait.

Parang Ayoko Na Yata tab

7,013 views 3 this week
2 commentsread comments
1 2 3 4 5
x 3
add to favorites
×
Save as Personal and add changes to this tab that will be seen only by you. Learn more ›
×
You can save this tab as Personal to edit and correct it or add notes. All changes will be seen only by you. Learn more »
launch autoscroll
font size
0
reset
how to read this tab
guitar tuner
edit
Autoscroll
slow
fast
+/-
esc
set tempo
stop
Parang Ayoko na Yata
(by Parokya ni Edgar)

Hello Sa inyong lahat...first time ko ito sa paggawa ng tab...
Di maxado 2 perfect pero ito ang Sa pandiig ko....
Hope u like it all...

BRiXxX
Email me @ "Crazy_brixxx@yahoo.com"


Instruction:
/ - slide up
\ - slide down
h - hammer on
p - pull off
b - bend
r - release
** - repeat
^^ - bend several times


intro:
C-G-C-G-C-G-
C,C,C-D,D,D-

stanza1:
C              G    C                G
naubos na ang barya sa kakayosi at kakabasa
C                  G         C,C,C-
ng magazine mong nakahilata dyan sa sala
C             G    C                G
mag-gagabi na pala di bat sinabi mo ala-una
C          G             C,C,C-        C,C,C-
mabuti na lang mabagal ako magbasa dumating ka na sana
   G                    D             C
bakit di ka man lang nagbilin na may balak ka pala biglang
D
mag-ice-skating
G                 D         C              D           Em
kung di ka pa tinawagan maiisip mo kaya akoy di bale na
       D                    C              D
nakakasawa din pala kapag paulit-ulit ang buhos ng galit
G        D          Em
parang ayoko na yata
Am                 D
nakakapagod din pala ang iyong mukha
           G           D          Em
at kung may balak ka pang ulitin sakin iyon
      C(break)         D(break)
may ibubulong ako sayo putang ina mo

adlib:
Em-D-Em-D-e -|------------------------------------------------------------------------|
b -|----------------------------------------------------------------------------------|
G-|------------11-12---11-12—11h12p11-------------------------------------------------|
D-|----12/14------------------------------------12---12^^-----------------------------|
A-|-----------------------------------------------------------------------------------|
E-|-----------------------------------------------------------------------------------|


e -|------------------------------------------------------------------------|
b -|----------------------------------------------13-15------15^^-----------|
G-|----11-12--11-12---11-12--14---12-15-------------------------------------|
D-|-------------------------------------------------------------------------|
A-|-------------------------------------------------------------------------|
E-|-------------------------------------------------------------------------|


e -|--------------------------------------------------|
b -|---15b17r13-------13------------------------------|
G-|-----------------16------14b16r12---11-------------|
D-|-----------------------------------------------14--|
A-|---------------------------------------------------|
E-|---------------------------------------------------|


e -|------------------------------------------------------------------------------15b17--|
b -|------------------------------------------------12--------12h15b17r12----------------|
G-|------------------12-------12h14---12h14-------14-------------------------------------|
D-|--/14---12/14-------14----------------------------------------------------------------|
A-|--------------------------------------------------------------------------------------|
E-|--------------------------------------------------------------------------------------|


e -|---------------------------------------------------------------------------------------------------|
b -|--15b17r12-----------------------------------------------------------------------------------------|
G-|---------------14b16r12--------------------------12\11----------------------------------------------|
D-|-----------------------------14-12----------14---------------12-----12/14---11-12---11-12----14^^^--|
A-|---------------------------------------14-----------------------------------------------------------|
E-|----------------------------------------------------------------------------------------------------|


e -|---/15----14-12---14-12-14------/15r12------17^^----15—17^^-------some part missing------------------|
b -|------------------------------------------------------------------------------I can't hear the lead--|
G-|---------------------------------------------------------------------anymore b'coz of the voice-------|
D-|------------------------------------------------------------------------------------------------------|
A-|-------------------------------------------------------------------------------sorry------------------|
E-|------------------------------------------------------------------------------------------------------|

C-D-Em-D-

chorus:
C                    Em-D-
bakit nagtitiyaga sayo
C                       Em-D-
ang damidami mong reklamo
C                      Em-D-
parang ayoko nang magsalita
C                  D...
parang ayoko na yata

stanza2: (do stanza chords)
ang daming dapat sabihin
alam ko na kung paanong gagawin
akala mo siguro na hindi ko kaya
at nang ikay dumating mula sayong pagaice-skating
wala akong nasabi kundi napagod ka ba kumain ka muna
pagkat di ko kayang magalit
pag nakita na kita tumatamis ang pait
laging pinipilit na magsungit ngunit di bale na
napapatawad na kita hindi na magagalit wag lang mauulit
at nong tayoy kakain na biglang sinabi mong may lakad kang iba
at kahit gusto sana kitang awayin na
sinabi ko bahala ka bastat magingat ka

adlib:Part II
e -|-----------------------------------------|
b -|-----------------------------------------|
G-|------------12-14---14^^................--|
D-|---12/14----------------------------------|
A-|------------------------------------------|
E-|------------------------------------------|

Ending part of adlib II
e -|--------------------------------------------|
b -|--------------------------------------------|
G-|------------11-12-14---12------14 sustained--|
D-|---12-14-------------------------------------|
A-|---------------------------------------------|
E-|---------------------------------------------|

Em-D-
(repeat chorus)

G        D          Em
parang ayoko na yata
Am                   D
ngunit wala naman akong magagawa
       G           D                Em
marahil sobrang alam mong di ko kayang mawala ka
   C                        D
maswerte kat mahal kita ang malas talaga
(whistles)
Lead with whistle
e -|------------------------------------------------------------------------------------|
b -|-----------------------------------------------------------------15-15-17-17-15-15--|
G-|----------------12------12---14/16p14--12--14---14/16--------------------------------|
D-|-------12h14------14-----------------------------------------------------------------|
A-|--14---------------------------------------------------------------------------------|
E-|-------------------------------------------------------------------------------------|


e -|-----------15-15--17-17p15-15---17/19---19**--p-17**--p—15**---p14-------------------------|
b -|-15h17--------------------------------------------------------------------------------15\--|
G-|--------------------------------------------------------------------------------------------|
D-|--------------------------------------------------------------------------------------------|
A-|--------------------------------------------------------------------------------------------|
E-|--------------------------------------------------------------------------------------------|


e -|----------------------------------|-----------------------------------------------|--|
b -|-/15---15-12-13-12-----------|------------12—12h13---13r-----------------------------|
G-|-------------------------14-12--|---12h14------------------------12--12---------------|
D-|----------------------------------|---------------------------------------------------|
A-|----------------------------------|---------------------------------------------------|
E-|----------------------------------|---------------------------------------------------|


e -|--12------------------------------------------------12-------14---------15--|
b -|--12----15-----13----12------13-----15---------12-------15---------17-------|
G-|----------14----12-----9-------12-----14-------------------------------------|
D-|-----------------------------------------------------------------------------|
A-|-----------------------------------------------------------------------------|
E-|-----------------------------------------------------------------------------|

repeat intro chords

yun lang!
enjoy po!

sub.by:
Eron Joshua Reyes
ejreyes37@yahoo.com

            
            
Suggest correction
Creating personal tab
Creating personal tab
You can edit any tab online and save it as your Personal.

You can edit, replace or remove any tab part or add personal notes – all changes will be seen only by you.

Personal tabs can be accessed anytime from any device, even offline.
Learn more »
Give kudos to tab author, rate the tab!
1 2 3 4 5
comments
print report bad tab
2 comments total.
0 reply
TOKMOL13 10 Apr 22, 2007 04:26 AM

bat kulang adlib?

0 reply
bertvillas 10 Jul 17, 2011 05:54 AM

bro, galing.. tumpak ata to. hehehe

guest
Wanna post a correction for this tab? Suggest correction