Oops, an error
Loading. Please wait.

Picha Pie solo tab

version 1
version 1

Solo

Whole song

Interactive

24,347 views 36 this week
4 commentsread comments
1 2 3 4 5
x 9
add to favorites
×
Save as Personal and add changes to this tab that will be seen only by you. Learn more ›
×
You can save this tab as Personal to edit and correct it or add notes. All changes will be seen only by you. Learn more »
launch autoscroll
font size
0
reset
how to read this tab
guitar tuner
edit
Autoscroll
slow
fast
+/-
esc
set tempo
stop
Author
 
Picha Pie by Parokya ni Edgar
Tabbed by: Aztecs
Tuning: Standard Tuning(ebgdae)

Adlib 1:
 
e|--------------------------------------------------------------------------|
b|-10b-8--------------------------------------------------------------------|
g|-------9-/9-9/5-5-7-7-7777-7h9p7-5-4h5p4h5p4------------------------------|
d|------------------------------------------------5-7-7b-----5-7-5----------|
a|---------------------------------------------/7--------5h7----------------|
e|--------------------------------------------------------------------------|

e|--------------------------------------------------------------------------|
b|---------------10-8-------------------------------------------------------|
g|-------5-9b-9b------9b-9b-7-9b-7-5-8b-8b-8-7-8----------------------------|
d|-5-7-7--------------------------------------------------------------------|
a|--------------------------------------------------------------------------|
e|--------------------------------------------------------------------------|

e|--------7-----------------------------------------------------------------|
b|-----9b---9-7-----7h9p7-5h7p5---5-7------5h7p5~---------------------------|
g|-6-9----------9-6-------------6-----6--6----------------------------------|
d|--------------------------------------------------------------------------|
a|--------------------------------------------------------------------------|
e|--------------------------------------------------------------------------

Pakinggan n'yo lang maigi itong kanta makukuha n'yo rin yung timing nito at
saka maitatama n'yo rin yung kaunting mga mali.. Siguro 80% ng tab na ito
is correct and the  20% is wrong notes!!

Adlib 2:

e|-------------15-13-12-------------------15-13-----------------------------|
b|-15b-13b---13--------15---------------13------17h18-17-15h17-15-13h15-13--|
g|---------14------------17p16-14-12--12------------------------------------|
d|--------------------------------------------------------------------------|
a|--------------------------------------------------------------------------|
e|--------------------------------------------------------------------------|

e|---------------------13-12---------------------------12-------------------|
b|-12h13-12-10-10/17-17-----15-13-12--12h13p12----13-12--13-12----13-12-12b-|
g|----------------------------------14--------14p0------------14p0----------|
d|--------------------------------------------------------------------------|
a|--------------------------------------------------------------------------|
e|--------------------------------------------------------------------------|
                                   =====this is played 6x=====
e|------------12----------|-------------------------------------------------|
b|-12b--12b-12--12-15-17b-|---------/1010101010-/10101010-/101010-----------|
g|----14------------------|-------------------------------------------------|
d|------------------------|-------------------------------------------------|
a|------------------------|-------------------------------------------------|
e|------------------------|-------------------------------------------------|

e|------------------------------5-------------------------------------------|
b|-8/10-8-8-5h6--5/3-3----------5-------------------------------------------|
g|---------------------5-4-2-0--5-------------------------------------------|
d|------------------------------7-------------------------------------------|
a|------------------------------7-------------------------------------------|
e|------------------------------5-------------------------------------------|
 Pakirate na lang itong tab ko!!




Suggest correction
Creating personal tab
Creating personal tab
You can edit any tab online and save it as your Personal.

You can edit, replace or remove any tab part or add personal notes – all changes will be seen only by you.

Personal tabs can be accessed anytime from any device, even offline.
Learn more »
comments
print report bad tab
4 comments total. Showing first comments.
0 reply
gakkung85 20 Apr 18, 2007 01:04 AM

nice...
kuya pde patab nmn po ung buong song n2!

0 reply
gakkung85 20 May 14, 2007 12:55 AM

nice ntry k n maauz n din thx!

0 reply
pooh_cha 10 Sep 24, 2007 03:49 AM

ok toh

guest
You may want to rate the tab now too:
select rating
Wanna post a correction for this tab? Suggest correction