Oops, an error
Loading. Please wait.

Sampip solo tab

version 2
version 2

Whole song

Interactive

1,784 views 6 this week
no commentswrite comment
1 2 3 4 5
3 more votes to show rating
add to favorites
×
Save as Personal and add changes to this tab that will be seen only by you. Learn more ›
×
You can save this tab as Personal to edit and correct it or add notes. All changes will be seen only by you. Learn more »
launch autoscroll
font size
0
reset
how to read this tab
guitar tuner
edit
Autoscroll
slow
fast
+/-
esc
set tempo
stop
Author
Difficulty
-----------------------------------------------------------------------------
                             Sampip - Parokya ni Edgar
-----------------------------------------------------------------------------
Tabbed by: Kadas
E-mail: aaron_pox@yahoo.com

Tuning: Standard

GO LYMAN!!!! Sineparate ko yung mga staff sa mga parts na praktisin mong una tas 
next staff next staff, etc. 
Ag upload nak tu lattan vid.

Solo 1:

e|------------------------------------------------|
B|-----8----8--10--b10-b10--b10br-8-10-8----------|
G|-7h9---9-------------------------------9--------|
D|------------------------------------------------|
A|------------------------------------------------|
E|------------------------------------------------|

e|------------------------------------------------|
B|--------------8-8/10-10-------------------------|
G|----------7-9-----------------------------------|
D|---7-9-10---------------------------------------|
A|-10---------------------------------------------|
E|------------------------------------------------|

e|-10-10p8p7-8-7----7-8-10-10\8--10-8-10-8--------|
B|---------------10-----10-10\8--10-8-10-8--------|
G|------------------------------------------------|
D|------------------------------------------------|
A|------------------------------------------------|
E|------------------------------------------------|

e|-8/10---------------------------------------------------------------------|
B|-8/10/12~--12\10-8-10---8---7---8---10-8---10/12-10\8-8/10\8-7h8-8~-------|
G|----------------------x---9---9---9------9-----------------------7--------|
D|--------------------------------------------------------------------------|
A|--------------------------------------------------------------------------|
E|--------------------------------------------------------------------------|


Solo 2: Di pa sure dito... update nalang

e|----7-7-----7--------------------7--------------|
B|-/8-8-8-(8)-8-h10-8h10-8---8-7h8---h10-8p7-8----|
G|------------------------------------------------| <---Pwede niyong ipluck
D|------------------------------------------------|     yung mga hammer
A|------------------------------------------------|
E|------------------------------------------------|

e|------7-------------------10-------10-------10-------10-------10------|
B|-8h10---h10-8-7/10--10h12----10h12----10h12----10h12----10h12----(10)-|
G|----------------------------------------------------------------------|
D|----------------------------------------------------------------------|
A|----------------------------------------------------------------------|
E|----------------------------------------------------------------------|

e|-10/12-12-12-12-10-10-8-8-7h8--10p7---------------|
B|-10/12-12-12-12-10-10-8-8-8---------8---10/8-7-8--|
G|--------------------------------------9-----------|
D|--------------------------------------------------|
A|--------------------------------------------------|
E|--------------------------------------------------|

e|----------------------------------------------------|
B|-8-8p7----------------8--7---7h8-8/10\8-7h8---------|
G|-------9-7--------7h9------9------------------------|
D|-----------9--7h9-----------------------------------|
A|----------------------------------------------------|
E|----------------------------------------------------|

etc etc. freestyle basta gumamit kayo ng scale na nagfafade out. Ito gamitin kung 
di niyo alam mag freestyle

e|------10-------12-------10--------8-7---------------|
B|-8/10----10/12----12\10----10\8-8-------------------|
G|----------------------------------------------------|
D|----------------------------------------------------|
A|----------------------------------------------------|
E|----------------------------------------------------|

e|-8p7-----------------------------------------------------------------|
B|----8---8/10\8-7-8--8-8p7------------8-8p7---7h8-8/10\8-7h8-8~-------|
G|------9-------------------9-7------9-------9----------------7~-------|
D|------------------------------9-7h9----------------------------------|
A|---------------------------------------------------------------------|
E|---------------------------------------------------------------------|


etc etc. freestyle na fade out basta gamitin ang mga notes na to:

e|----------------7-8-10-12---|
B|---------7-8-10-------------|
G|-----7-9--------------------|
D|-7-9------------------------| <---- kahit ano nang pinipindot jan.
A|----------------------------|
E|----------------------------|


************************************

| /   slide up
| \   slide down
| h   hammer-on
| p   pull-off
| ~   vibrato
| +   harmonic
| x   Mute note
| b   Bend
| pb  Pre-bend
| br  Bend release
| pbr Pre-bend release
| brb Bend release bend
| (X) Soft Pluck

************************************

            
            
Suggest correction
Creating personal tab
Creating personal tab
You can edit any tab online and save it as your Personal.

You can edit, replace or remove any tab part or add personal notes – all changes will be seen only by you.

Personal tabs can be accessed anytime from any device, even offline.
Learn more »
Give kudos to tab author, rate the tab!
1 2 3 4 5
comments
print report bad tab
guest
You may want to rate the tab now too:
select rating
Wanna post a correction for this tab? Suggest correction