Oops, an error
Loading. Please wait.

Silvertoes solo tab

version 1
version 1

Whole song

Interactive

12,292 views 12 this week
no commentswrite comment
1 2 3 4 5
3 more votes to show rating
add to favorites
×
Save as Personal and add changes to this tab that will be seen only by you. Learn more ›
×
You can save this tab as Personal to edit and correct it or add notes. All changes will be seen only by you. Learn more »
launch autoscroll
font size
0
reset
how to read this tab
guitar tuner
edit
Autoscroll
slow
fast
+/-
esc
set tempo
stop
Author
Difficulty
Unregistered
 
  
  Song Name/Title:Silvertoes
  Group/Artist:Parokya ni Edgar
  Tabbed by:Aztecs
  Tuning:Standard(Normal)

  Kung may malidoon sa ibang part pakinggan niyo na lang para
  makuha niyo..hindi ko makuha yung iba diyan sa solo pero 
  yung iba kuha ko na,timingan niyo na lang yung solo tapos
  makukuha niyo rin iyan..
  
  Legends:
  p-pull-off        b-bend
  /-slide           h-hammer
 
  Solo:

 |-----------------------------------8-7----7-8-8/10-8-7-8-7p5---------|
 |---8-7-----------7-8-10p8p0-7-8-10-----10--------------------8p0-----|
 |-7-----7-----7-9-----------------------------------------------------|
 |---------7-9---------------------------------------------------------|
 |---------------------------------------------------------------------| 
 |---------------------------------------------------------------------|
 
 |--------15-14--------------------------------------------------------|
 |---13-15-----15------15-13-12-13-12-13b-10h12p10p0------10-12-13-----|
 |-14------------14-16b-----------------------------12b-12-------------|
 |---------------------------------------------------------------------|
 |---------------------------------------------------------------------|
 |---------------------------------------------------------------------|

 |-----------------14-|-17-14-17-15-14-------------------------------------|
 |-12h13p12p0-12-13---|---------------17-15-13-12h13p12p0-13-12h13p12p10p0-|
 |--------------------|----------------------------------------------------|
 |--------------------|----------------------------------------------------|
 |--------------------|----------------------------------------------------|
 |--------------------|----------------------------------------------------|
          =======this part is fast=======
 |------|----------------------------------------12-15p14p0-15-19b--|
 |------|-----------------------12-13p12p0--12h15-------------------|
 |-12p0-|------12-14p12p0--12h14----------14------------------------|
 |------|-12h14----------14-----------------------------------------|
 |------|-----------------------------------------------------------| 
 |------|-----------------------------------------------------------| 

 |-15-19p15-19-17-15-14--------14-15-17-19--14-15-19p17-15h19-17-15p14--|
 |---------------------17-15-17-----------------------------------------|
 |----------------------------------------------------------------------|
 |----------------------------------------------------------------------|
 |----------------------------------------------------------------------|
 |----------------------------------------------------------------------|

 |-12-13-12---------------------------------------------|
 |---------15-13-12-13-12-12h13p12p10p0-----------------|
 |--------------------------------------12--------------|
 |------------------------------------------------------|
 |------------------------------------------------------| 
 |------------------------------------------------------| 
  Kayang-kaya niyo yan madali lang yan!
  Pakirate na lang po!


            
            
Suggest correction
Creating personal tab
Creating personal tab
You can edit any tab online and save it as your Personal.

You can edit, replace or remove any tab part or add personal notes – all changes will be seen only by you.

Personal tabs can be accessed anytime from any device, even offline.
Learn more »
Give kudos to tab author, rate the tab!
1 2 3 4 5
comments
print report bad tab
guest
Wanna post a correction for this tab? Suggest correction