Oops, an error
Loading. Please wait.

Tatlong Araw Tab

version 1
version 1

Whole song

5,278 views 9 this week
no commentswrite comment
1 2 3 4 5
please rate
add to favorites
launch autoscroll
font size
0
reset
how to read this tab
guitar tuner
Tab Pro tools
  • play this tab
  • loop segment
  • change instrument
  • show fretboard
  • metronome
×
Best way to learn
"Tatlong Araw"
Autoscroll
slow
fast
+/-
esc
set tempo
stop
song:tatlong araw
band:parokya ni edgar
tabbed by jeffrey h.(y2jc_28@yahoo.com)
               hey, ito yung solo. yung intro bass at chords ay ibibgay
ng kaibigan ko si glen b. Enjoy!
solo(clean)

e---------------------------------------------10------------------------------------------------------------------------------|
b---------------------------------10--10(b)----10(b)--8/10/8---7---12----------------8---8--8--8/10--10--10--10/12--12/15--15-|
g-------7---------7/9/7---9/11------------------------------------9------------7/9/7------------------------------------------|
d--7/9------7/9-------------------------------------------------------------7/9-----------------------------------------------|
a-----------------------------------------------------------------------------------------------------------------------------|
e-----------------------------------------------------------------------------------------------------------------------------|

e---------------------------------19---17--19---17---------------------------------------------------|
b---13(b)--13*--13*--13(b)---17(b)---19------------20--19--20--19--17--19---17(b)--17*--17(b.t.r.)---|
g-------------------------------------------------------------------------------------------------16-|
d----------------------------------------------------------------------------------------------------|
a----------------------------------------------------------------------------------------------------|
e----------------------------------------------------------------------------------------------------|

e--------------------------------------------------------|
b--------------------------------------------------------|
g---12--12--12/11--11--11--11/9--9--9--9/7------7--------|
d----------------------------------------------------7/9-|
a--------------------------------------------------------|
e--------------------------------------------------------|
that's all
notations:
*-hit while bent
b.t.r-bend then release
(b)-bend 1 whole step
comments
We did not receive enough feedback on this tab! Please rate:
print report bad tab
1 2 3 4 5
I want to post or [tab]
guest
You may want to rate the tab now too:
select rating
Please do not post tabs as comments. Select "correction" instead!