Oops, an error
Loading. Please wait.

Tatlong Araw Bass Tab

version 2
version 2

Whole song

1,222 views 1 this week
no commentswrite comment
1 2 3 4 5
3 more votes to show rating
add to favorites
launch autoscroll
font size
0
reset
guitar tuner
Autoscroll
slow
fast
+/-
esc
set tempo
stop
Help us to improve Ultimate-Guitar.com Take our survey!
×
Author
Difficulty
novice
Bass Standard Tuning
Tabbed by Paolo Fernandez
Intro:

G|-----------------------------------|--------------------12/14-12---------|
D|-----------------------------------|-----------12---------------12-14/16-|
A|-----10\9---12----------10\9-------|-----10\9--------12------------------| 
E|10h12-----10-------10h12----10-5---|10h12----10--------------------------|

G|------------------------------------19-18--16------16-14--|
D|-----12\11----14-16-14---------------------------16-------|
A|12h14-------------------------17h19------------14---------|
E|----------------------------19----------------------------|

Verse:
G|----|----|----|----|
D|----|----|----|----|
A|5---|----|----|----|
E|----|5---|7---|3---|

Adlib:

G|-----------------------------------|--------------------12/14-12---------|
D|-----------------------------------|-----------12---------------12-14/16-|
A|-----10\9---12----------10\9-------|-----10\9--------12------------------| 
E|10h12-----10-------10h12----10-5---|10h12----10--------------------------|

G|------------------------------------19-18--16-|
D|-----12\11----14-16-14------------------------|
A|12h14-------------------------17h19-----------|
E|----------------------------19----------------| 

G|12-12-12\11-11-11-11\9-9-9-9\7-----7---|
D|-------------------------------7h9-----|
A|---------------------------------------|
E|---------------------------------------|
Then...
G|----|----|----|------|----|-------|--------------|
D|----|----|----|------|----|-------|--------------|
A|----|----|----|---4h5|----|---9h10|--------------|
E|5---|7---|3---|7-----|5---|7------|3-3-3-3-3-3-3\|

Chorus:

G|----|----|----|----|
D|----|----|----|----|
A|5---|----|----|----|
E|----|5---|7---|3---|

End..

Add me on Facebook: fap.pao12
Follow me on Twitter: paolo0712
Thanks!
Suggest correction
Give kudos to tab author, rate the tab!
1 2 3 4 5
comments
print report bad tab
guest
You may want to rate the tab now too:
select rating
Wanna post a correction for this tab? Suggest correction