Oops, an error
Loading. Please wait.

Tsaka Na Lang intro tab

version 1
version 1

Intro

277 views 3 this week
no commentswrite comment
1 2 3 4 5
1 last vote to show rating
add to favorites
×
Save as Personal and add changes to this tab that will be seen only by you. Learn more ›
×
You can save this tab as Personal to edit and correct it or add notes. All changes will be seen only by you. Learn more »
launch autoscroll
font size
0
reset
how to read this tab
guitar tuner
edit
Autoscroll
slow
fast
+/-
esc
set tempo
stop
Author
Difficulty
Title:     Tsaka na Lang
Band:      Parokya ni Edgar
Album:     Bigotilyo
Tabbed by: Kenpuge of Surigao City
Tuning:    Standard

pakinggan nyu na lng po ang music pra sa timing...
so here it goes..

intro: 

(drums).. then..

(distorted)    
e|----------------------------|
B|----------------------------|
G|--7-7777-6------------------| (4x)
D|--7-7777-6------------------| 
A|--5-5555-4------------------|
E|----------------------------|


e|-------------------|---------------------------|
B|-------------------|---------------------------|
G|--999999-----------|-----------66-44-----------| (2x)
D|--999999---99-77---|--444444---66-44-----------|
A|--777777---99-77---|--444444---44-22-----------|
E|-----------77-55---|--222222-------------------|


e|------------------------------|
B|------------------------------|
G|--9---------------------------| (hintayin nyu na lng pumasok
D|--9--(let ring..)(then pluck)-|  ang vocalist..)
A|--7---------------------------|
E|------------------------------|

that's all.. 
tsaka nga pla..
this piecework is dedicated to miss Bella and to my band mates Rani, Louie, and Kessi 

for comments or suggestions:
kenpuge07@yahoo.com or txt me nlng 09206177062


            
            
Suggest correction
Creating personal tab
Creating personal tab
You can edit any tab online and save it as your Personal.

You can edit, replace or remove any tab part or add personal notes – all changes will be seen only by you.

Personal tabs can be accessed anytime from any device, even offline.
Learn more »
Give kudos to tab author, rate the tab!
1 2 3 4 5
comments
print report bad tab
guest
You may want to rate the tab now too:
select rating
Wanna post a correction for this tab? Suggest correction