Oops, an error
Loading. Please wait.

All Night chords

version 2
version 2

Whole song

959 views 1 this week
no commentswrite comment
1 2 3 4 5
1 last vote to show rating
add to favorites
×
Save as Personal and add changes to this tab that will be seen only by you. Learn more ›
×
You can save this tab as Personal to edit and correct it or add notes. All changes will be seen only by you. Learn more »
launch autoscroll
font size
0
reset
transpose
0
reset
display chords
guitar tuner
edit
Autoscroll
slow
fast
+/-
esc
set tempo
stop
Strumming
There is no strumming pattern for this song yet. and get +5 IQ
-------------------------------------------------------------------------------
                             ALL NIGHT - Parov Stelar
-------------------------------------------------------------------------------
Tabbed by: patapon97

Tuning: Drop D
     Gm          F                Eb          D
E |-----3-----3-----1-----1----|-----3-----3-----2-----2----||
B |-----3-----3-----1-----1----|-----4-----4-----3-----3----||
G |-----3-----3-----2-----2----|-----3-----3-----2-----2----||
D |--------0-----3-------------|--1-------------------------||
A |--------------------3-------|--------1-----3-------------||
D |--5-------------------------|--------------------0-------||


[INTRO]

Gm     F    Eb     D

[VERSE]

Gm             F 
Then let's ride
     Eb       D    Gm      F  Eb  D
Yeah all right, let's ride

Gm             F
Then let's ride
     Eb        D
Yeah gonna ride
    Gm        F         Eb  D
Let's right...all night

[BRIDGE]

Gm
Then let's ride
Gonna ride
Let's ride....all night

He, had, He had would have
He, had, He had would have

[CHORUS]

Gm            F
He would have tried!Oh!
Eb              D
He would have faced you!
Gm        F
All night long!
Eb           D
Then at last you've gone!

            
            
Suggest correction
Creating personal tab
Creating personal tab
You can edit any tab online and save it as your Personal.

You can edit, replace or remove any tab part or add personal notes – all changes will be seen only by you.

Personal tabs can be accessed anytime from any device, even offline.
Learn more »
Give kudos to tab author, rate the tab!
1 2 3 4 5
comments
print report bad tab
guest
You may want to rate the tab now too:
select rating
Wanna post a correction for this tab? Suggest correction