Oops, an error
Loading. Please wait.

Matilda bass

2,458 views 1 this week
no commentswrite comment
1 2 3 4 5
1 last vote to show rating
add to favorites
×
Save as Personal and add changes to this tab that will be seen only by you. Learn more ›
×
You can save this tab as Personal to edit and correct it or add notes. All changes will be seen only by you. Learn more »
launch autoscroll
font size
0
reset
guitar tuner
edit
Autoscroll
slow
fast
+/-
esc
set tempo
stop
Difficulty
-------------------------------------------------------------------------------
			     Parov Stelar - Matilda
-------------------------------------------------------------------------------


Tabbed by: Adam Neth
e-mail: nitradam@citromail.hu

This is my very first tab, I just decided to make it because I didn't find any tab for 
this song.
I am a totally beginner bass player, I made it by ear. I would be glad to see 
corrections or advices from you folks.
Best wishes.



Starts with:

G|----------------|
D|----------------| x6
A|0-------3-------|
E|----------------|


From 0:22

G|----------------|
D|--------0-------| x4
A|0---------------|
E|----------------|


From 0:37-0:51 only piano plays bass


Then (0:51) Main Pattern

G|--20---------0--|            (those are 2s and 0s, not 20s)
D|-------000022-2-| x10
A|00--003---------|
E|----------------|


From 1:28

G|----------------|
D|----------------| x4
A|0-------3-------|
E|----------------|


Then (1:43)

G|--20--20--20--20|
D|----------------| x2
A|00--00--00--00--|
E|----------------|



From 1:50 the Main Pattern comes back

G|--20---------0--|
D|-------000022-2-|
A|00--003---------|
E|----------------|


After this you will be able to play the appropriate part by ear till the end of the song.

            
            
Suggest correction
Creating personal tab
Creating personal tab
You can edit any tab online and save it as your Personal.

You can edit, replace or remove any tab part or add personal notes – all changes will be seen only by you.

Personal tabs can be accessed anytime from any device, even offline.
Learn more »
Give kudos to tab author, rate the tab!
1 2 3 4 5
comments
print report bad tab
guest
Wanna post a correction for this tab? Suggest correction