Oops, an error
Loading. Please wait.

Berlin Got Blurry tab

4,006 views 42 this week
3 commentsread comments
1 2 3 4 5
x 5
add to favorites
×
Save as Personal and add changes to this tab that will be seen only by you. Learn more ›
×
You can save this tab as Personal to edit and correct it or add notes. All changes will be seen only by you. Learn more »
launch autoscroll
font size
0
reset
how to read this tab
guitar tuner
edit
Autoscroll
slow
fast
+/-
esc
set tempo
stop
Author
[Riff]

e|-----------------------------------------------------------------------------------|
B|-----------------------------------------------------------------------------------|
G|-------0------------------------0--------------------------------------------------|
D|--------------------0--0-----------------------------------------------------------|
A|-2-2h3---0-2---------------2-2h3--0-2----------------------------------------------|
E|---------------3-3-3--3------------------------------------------------------------|


[Verse]

e|---3-----3----|
B|---3-----5----|
G|---4-----5----|
D|---5-----5----|
A|---5-----3----|
E|---3----------|


[Chorus]

e|-0---0---0---3---3---5---5----|
B|-0---1---0---5---3---7---5----|
G|-1---2---1---5---4---7--6r5---|
D|-2---2---2---5---5---7---7----|
A|-2---0---2---3---5---5---7----|
E|-0-------0-------3-------5----|


[Solo] Might not be perfect, but I think it's close.

e|---------------------------------------------------------------------------|
B|---------------------------------------------------------------------------|
G|-------0------------------------0----------------------------2h4p3p2h4-----|
D|--------------------0--0----------------2-2-2-0---0-----0-2----------------|
A|-2-2h3--0-2----------------2-2h3--0-2-----------2-----2--------------------|
E|---------------3-3-3--3----------------------------------------------------|

e|---------------------------------------------------------5-7-7\5\3\0-------|
B|---------------3-5--8-5---8-5-------------------------5-5------------------|
G|---4-4-----2-4----------7-----7---4-2-4-2-0---2-4-7-7----------------------|
D|-------0h2---------------------------------2-------------------------------|
A|---------------------------------------------------------------------------|
E|---------------------------------------------------------------------------|

e|--5---------------|
B|--5---------------|
G|-6r5-------0------| X 2
D|--7---------------|
A|--7--2-2h3--0-2---|
E|--5---------------|

e|--5---3------------|
B|--5---5------------|
G|--5---5------------| X 1
D|--7---5------------|
A|--7---3------------|
E|--5----------------|


[End]

e|--5---|
B|--5---|
G|-6r5--|
D|--7---|
A|--7---|
E|--5---|

Riff
Verse X8
Chorus
Riff
Verse X8
Chorus
Solo
Verse X8
Chorus
Riff
End



************************************

| h  Hammer-on
| p  Pull-off
| r  Release
| \  Slide down

************************************

            
            
Suggest correction
Creating personal tab
Creating personal tab
You can edit any tab online and save it as your Personal.

You can edit, replace or remove any tab part or add personal notes – all changes will be seen only by you.

Personal tabs can be accessed anytime from any device, even offline.
Learn more »
comments
print report bad tab
3 comments total.
0 reply
xAngelsOfHellx 2,152 Jun 25, 2016 11:10 AM

I think the main riff is actually 2-2h3 , not 2h3h4

0 reply
sully65 10 Jul 23, 2016 12:24 PM

Well done - good job with the solo! I prefer playing the chorus with an Em instead of E even though it looks like they play the latter in videos I've seen. An Em in the chorus just sounds a little better in my opinion.

guest
You may want to rate the tab now too:
select rating
Wanna post a correction for this tab? Suggest correction