Oops, an error
Loading. Please wait.

N Dakota bass

1,644 views 6 this week
2 commentsread comments
1 2 3 4 5
x 6
add to favorites
×
Save as Personal and add changes to this tab that will be seen only by you. Learn more ›
×
You can save this tab as Personal to edit and correct it or add notes. All changes will be seen only by you. Learn more »
launch autoscroll
font size
0
reset
guitar tuner
edit
Autoscroll
slow
fast
+/-
esc
set tempo
stop
N. Dakota - Parquet Courts
  Light Up Gold - 2012
_________________________________________________________________________________________

G|----------------|----------------|----------------|----------------|
D|----------------|----------------|----------------|3-3-3-----------| intro
A|3-3-3-3-3-3-3-3-|3-1-1-1-1-1-1-1-|----------------|------0-0-0-1-1-|
E|----------------|----------------|1-1-1-1-1-1-1-1-|----------------|


G|----------------|----------------|----------------|----------------|
D|----------------|----------------|----------------|3-3-3-----------| x4 with band
A|3-3-3-3-3-3-3-3-|3-1-1-1-1-1-1-1-|----------------|------0-0-0-1-1-| (instrumental)
E|----------------|----------------|1-1-1-1-1-1-1-1-|----------------|


G|----------------|----------------|----------------|----------------|
D|----------------|----------------|----------------|3-3-3-----------| x4 Verse 1
A|3-3-3-3-3-3-3-3-|3-1-1-1-1-1-1-1-|----------------|------0-0-0-1-1-|
E|----------------|----------------|1-1-1-1-1-1-1-1-|----------------|


G|----------------|----------------|----------------|----------------|
D|----------------|----------------|----------------|3-3-3-----------| x2 with band
A|3-3-3-3-3-3-3-3-|3-1-1-1-1-1-1-1-|----------------|------0-0-0-1-1-| (instrumental)
E|----------------|----------------|1-1-1-1-1-1-1-1-|----------------|


G|----------------|----------------|----------------|----------------|
D|----------------|----------------|----------------|3-3-3-----------| x4 Verse 2
A|3-3-3-3-3-3-3-3-|3-1-1-1-1-1-1-1-|----------------|------0-0-0-1-1-|
E|----------------|----------------|1-1-1-1-1-1-1-1-|----------------|

G|----------------|----------------|----------------|
D|----------------|----------------|----------------|
A|3~--------------|----------------|----------------|
E|----------------|----------------|----------------|

_________________________________________________________________________________________

************************************

| ~  Hold note / Let ring out (I know this normally means vibrato)

************************************

            
            
Suggest correction
Creating personal tab
Creating personal tab
You can edit any tab online and save it as your Personal.

You can edit, replace or remove any tab part or add personal notes – all changes will be seen only by you.

Personal tabs can be accessed anytime from any device, even offline.
Learn more »
comments
print report bad tab
2 comments total.
+2 reply
SGT.Crackers 10 Dec 13, 2013 01:04 PM

its pretty good, except i think the last part should go

|----------------------------
|-----3-3-3-------------------
|-----------0-0-0--1-1-1------
|----------------------------

sounds much better to me

guest
You may want to rate the tab now too:
select rating
Wanna post a correction for this tab? Suggest correction