Oops, an error
Loading. Please wait.

Nom Nom Nom Nom Nom Nom Nom tab

version 1
version 1

Whole song

Interactive

4,506 views 6 this week
2 commentsread comments
1 2 3 4 5
x 4
add to favorites
×
Save as Personal and add changes to this tab that will be seen only by you. Learn more ›
×
You can save this tab as Personal to edit and correct it or add notes. All changes will be seen only by you. Learn more »
launch autoscroll
font size
0
reset
how to read this tab
guitar tuner
edit
Autoscroll
slow
fast
+/-
esc
set tempo
stop
This is my first tab. It's a pretty easy song. There are basically 2 sections you repeat 
change a little. Here's the first one. Enjoy =)

----------0----------------------------------------------------|
3-3-3-0-3---3---0-0-0---0-1-0---------------0-------------0----|
----------------------2-------2-0-0-0---0-2-----2-2-2-0-2---2--|
--------------------------------------2------------------------|
---------------------------------------------------------------|
---------------------------------------------------------------|

Repeat

----------0----------------------------------------------------|
3-3-3-0-3---3---0-0-0---0-1-0---------------0-------------0----|
----------------------2-------2-0-0-0---0-2-----2-2-2-0-2---2--|
--------------------------------------2------------------------|
---------------------------------------------------------------|
---------------------------------------------------------------|

Then you just repeat it an octave up (these are all double digit numbers, not 2 
numbers)

---------------12------------------------------------------------------------------------------|
15-15-15-12-15----15---12-12-12----12-13-12----------------------12-------------------12-------|
--------------------------------14----------14-12-12-12----12-14-------14-14-14-12-14----14----|
--------------------------------------------------------14-------------------------------------|
-----------------------------------------------------------------------------------------------|
-----------------------------------------------------------------------------------------------|

Here's the next section, and again, they are double digit numbers when they are really 
together.

----10-10-----10-10-----10-10-----10-10-----10-10------10-10------10-10-----10-10-|
8-8-------8-8---------------------------8-8--------8-8----------------------------|
--------------------7-7-------7-7-----------------------------7-7-------7-7-------|
----------------------------------------------------------------------------------|
----------------------------------------------------------------------------------|
----------------------------------------------------------------------------------|


7-7-10-10-7-7-10-10-------10-10-------10-10-|
8-8-------8-8-------10-10-------10-10-------|
---------------------7--7--------7--7-------|
--------------------------------------------|
--------------------------------------------|
--------------------------------------------|


Thn you repeat the first part 3 more times.

            
            
Suggest correction
Creating personal tab
Creating personal tab
You can edit any tab online and save it as your Personal.

You can edit, replace or remove any tab part or add personal notes – all changes will be seen only by you.

Personal tabs can be accessed anytime from any device, even offline.
Learn more »
comments
print report bad tab
2 comments total.
+1 reply
P3NGu1N 20 Oct 11, 2010 05:59 PM

Nice Job!! Now I can piss my friends off >=D

0 reply
poptart.hero22 11 May 14, 2015 05:52 AM

This sounds better to me :)
----------0----------------------------------------------------|
3-3-3-0-3---3---0-0-0---0-1-0-----------------------------0----|
----------------------2-------2-0-0-0---0-2-0---2-2-2-0-2---2--|
--------------------------------------2------------------------|
---------------------------------------------------------------|
---------------------------------------------------------------|

guest
Wanna post a correction for this tab? Suggest correction