Oops, an error
Loading. Please wait.

Algo De Esas Cosas tab

23 views 1 this week
no commentswrite comment
1 2 3 4 5
3 more votes to show rating
add to favorites
×
Save as Personal and add changes to this tab that will be seen only by you. Learn more ›
×
You can save this tab as Personal to edit and correct it or add notes. All changes will be seen only by you. Learn more »
launch autoscroll
font size
0
reset
how to read this tab
guitar tuner
edit
Autoscroll
slow
fast
+/-
esc
set tempo
stop

E|----3----3----0-------0----0----0------3---2---2---|
B|---3----3----3-3-----3----3----3-3------3---3---3--|
G|--0----0----0---0---0----0----0---0---2--2---2---2-|
R|------------------0------------------0-------------|
A|-------------------3----2----0---------------------|
E|-3----2----0---------------------------------------|

|----3----3----0--------0----0----0------3--2--2----|
|----3----3---3-3------3----3----3-3------3--3--3---|
|--0----0----0---0----0----0----0---0---2--2--2--2--|
|-------------------0------------------0------------|
|--------------------3----2----0--------------------|
|-3----2----0---------------------------------------|
                    Dime algo de tus ojos o de amor...

(despues de esto se repite lo mismo con la guitarra 
mientras se canta durante la musica y cambia en el coro)

Dime cuanto tiempo sera y sueña
dime algo de esas cosas 
y que ya no pueden cambiar

CORO
     G               C  
Y el tiempo que te esconde
                    Em 
que te aleja y te disipa
       D
donde estas

   G                    C
El tiempo algo de esas cosas
        Em
que no puedes
    D   Dsus D 
cambiar
(Fin del coro)

Dime algo de tus ojos
donde es que los puedo allar
dime que es lo que sientes
dime como puedo amar

CORO

Y el viento de los sueños
que te traen me enloquecen
donde estas

el tiempo algo de esas cosas
que no puedes
cambiar
(fin del coro)

Dime algo de tu boca
donde la puedo robar?
dime donde es que te escondes


AGUANTE OADEN
Suggest correction
Creating personal tab
Creating personal tab
You can edit any tab online and save it as your Personal.

You can edit, replace or remove any tab part or add personal notes – all changes will be seen only by you.

Personal tabs can be accessed anytime from any device, even offline.
Learn more »
Give kudos to tab author, rate the tab!
1 2 3 4 5
comments
print report bad tab
guest
Wanna post a correction for this tab? Suggest correction