Oops, an error
Loading. Please wait.

Power And The Greed Tab

247 views 6 this week
no commentswrite comment
1 2 3 4 5
3 more votes to show rating
add to favorites
launch autoscroll
font size
0
reset
how to read this tab
guitar tuner
Autoscroll
slow
fast
+/-
esc
set tempo
stop
Help us to improve Ultimate-Guitar.com Take our survey!
×
Author
Difficulty
novice
Intro:

e|-------------------------------------|
b|-------------------------------------|
g|---------------------10-10-10-10-----|
d|----12--12--12-12--10-10-10-10-------|
a|--12--12--12--12--8--8--8--8---------|
e|10--10--10--10-----------------------|


e|-------------------------------------|
b|-------------------------------------|
g|---------------------10-10-10-10-----|
d|----12--12--12-12--10-10-10-10----10-|
a|--12--12--12--12--8--8--8--8-----10--|
e|10--10--10--10------------------8----|

e|--------------------------------------------------|
b|--------------------------------------------------|
g|---------------------10-10-10-10~12-12-12-12------|
d|----12--12--12-12--10-10-10-10~12-12-12-12-----5--|
a|--12--12--12--12--8--8--8--8~10-10-10-10------5---|
e|10--10--10--10-------------------------------7----|

 Verse (repeat x2):


e|-------------------------------------|
b|-------------------------------------|
g|---------------------10-10-10-10-----|
d|----12--12--12-12--10-10-10-10-------|
a|--12--12--12--12--8--8--8--8---------|
e|10--10--10--10-----------------------|


e|-------------------------------------|
b|-------------------------------------|
g|---------------------10-10-10-10-----|
d|----12--12--12-12--10-10-10-10----10-|
a|--12--12--12--12--8--8--8--8-----10--|
e|10--10--10--10------------------8----|

e|-------------------------------------------------|
b|-------------------------------------------------|
g|---------------------10-10-10-10~12-12-12-12-----|
d|----12--12--12-12--10-10-10-10~12-12-12-12-------|
a|--12--12--12--12--8--8--8--8~10-10-10-10---------|
e|10--10--10--10-----------------------------------|

Chorus(repeat x2):

e|------------------------------------------------------|
b|------------------------------------------------------|
g|------------------10-10-10-10~12-12-12-12~15-15-15-15-|
d|----12-12-12-12-10-10-10-10~12-12-12-12~15-15-15-15---|
a|--12-12-12-12--8--8--8--8~10-10-10-10~13-13-13-13-----|
e|10-10-10-10-------------------------------------------|


Verses(repeat x4):
e|-------------------------------------|
b|-------------------------------------|
g|---------------------10-10-10-10-----|
d|----12--12--12-12--10-10-10-10-------|
a|--12--12--12--12--8--8--8--8---------|
e|10--10--10--10-----------------------|


e|-------------------------------------|
b|-------------------------------------|
g|---------------------10-10-10-10-----|
d|----12--12--12-12--10-10-10-10----10-|
a|--12--12--12--12--8--8--8--8-----10--|
e|10--10--10--10------------------8----|

e|-------------------------------------------------|
b|-------------------------------------------------|
g|---------------------10-10-10-10~12-12-12-12-----|
d|----12--12--12-12--10-10-10-10~12-12-12-12-------|
a|--12--12--12--12--8--8--8--8~10-10-10-10---------|
e|10--10--10--10-----------------------------------|

Chorus (repeat x4):

e|------------------------------------------------------|
b|------------------------------------------------------|
g|------------------10-10-10-10~12-12-12-12~15-15-15-15-|
d|----12-12-12-12-10-10-10-10~12-12-12-12~15-15-15-15---|
a|--12-12-12-12--8--8--8--8~10-10-10-10~13-13-13-13-----|
e|10-10-10-10-------------------------------------------|

Verses(repeat x4):
e|-------------------------------------|
b|-------------------------------------|
g|---------------------10-10-10-10-----|
d|----12--12--12-12--10-10-10-10-------|
a|--12--12--12--12--8--8--8--8---------|
e|10--10--10--10-----------------------|


e|-------------------------------------|
b|-------------------------------------|
g|---------------------10-10-10-10-----|
d|----12--12--12-12--10-10-10-10----10-|
a|--12--12--12--12--8--8--8--8-----10--|
e|10--10--10--10------------------8----|

e|-------------------------------------------------|
b|-------------------------------------------------|
g|---------------------10-10-10-10~12-12-12-12-----|
d|----12--12--12-12--10-10-10-10~12-12-12-12-------|
a|--12--12--12--12--8--8--8--8~10-10-10-10---------|
e|10--10--10--10-----------------------------------|

Chorus (repeat x4):

e|------------------------------------------------------|
b|------------------------------------------------------|
g|------------------10-10-10-10~12-12-12-12~15-15-15-15-|
d|----12-12-12-12-10-10-10-10~12-12-12-12~15-15-15-15---|
a|--12-12-12-12--8--8--8--8~10-10-10-10~13-13-13-13-----|
e|10-10-10-10-------------------------------------------|

bridge (repeat x10):

e|-------------------------------------|
b|-------------------------------------|
g|---------------------10-10-10-10-----|
d|----12--12--12-12--10-10-10-10-------|
a|--12--12--12--12--8--8--8--8---------|
e|10--10--10--10-----------------------|


e|-------------------------------------|
b|-------------------------------------|
g|---------------------10-10-10-10-----|
d|----12--12--12-12--10-10-10-10----10-|
a|--12--12--12--12--8--8--8--8-----10--|
e|10--10--10--10------------------8----|

End (repeat x4):

e|------------------------------------------------------|
b|------------------------------------------------------|
g|------------------10-10-10-10~12-12-12-12~15-15-15-15-|
d|----12-12-12-12-10-10-10-10~12-12-12-12~15-15-15-15---|
a|--12-12-12-12--8--8--8--8~10-10-10-10~13-13-13-13-----|
e|10-10-10-10-------------------------------------------|

Lyrics:

I am so tired of living in this place
 Just wanna get out of the rat race 
Don't want to live any monarchist dream
 Don't wanna live here because
 I am anti Queen I'm anti Queen
 I cant take much more ??? 
I'm anti Queen and 
I don't give a shit about what they preach
 The Royal family takes the money that you need To pay for ???
 and to pay for the greed 
So do you think this systems fair
 When you can't afford the clothes you wear 
They got mansions and so much land ???
 No power its all a game 
What we need to do is take away their rights 
What we need to do is stand up and fight ???
 So don't believe a word they say

http://www.youtube.com/watch?v=J5Sn7uN3e6c


Suggest correction
Give kudos to tab author, rate the tab!
1 2 3 4 5
comments
print report bad tab
guest
You may want to rate the tab now too:
select rating
Wanna post a correction for this tab? Suggest correction